PrimaNota.ru - самый крупный в мире бесплатный архив песенных текстов, аккордов, табулатур и нот


Exies - Different Than You - текст песни, таба, видео

Регистрация Запомнить меня
Войти через:  Facebook Google Twitter Vk Yandex Mail.ru

Exies - Different Than You - текст песни, таба, видео

Печатать
Просмотров: 164
Band: The Exies
Song: Different Than You

Tuning:C G C F A D

Part:I
d|---------------------------------------------------------------|
A|---------------------------------------------------------------|
F|---------------------------------------------------------------|
C|-7---6---44--x-----7---6----9-6-----7---6--44--x----7---6---99-|
G|-4---4---44--7-----5---5----7-4-----4---4--44--7----5---5---77-|
C|-4---4---44--4-----x---x----x-x-----4---4--44--4----x---x---xx-|
    ... ...           ... ...                          ... ...

Part:II
d|------------------------------------|
A|------------------------------------|
F|------------------------------------|
C|--7-7-7----6-6-6-----7-7-7----6-6-6-|
G|--7-7-7----4-4-4-----7-7-7----4-4-4-|
C|--7-7-7--------------7-7-7----------|

Part:III
d|----------------------------|
A|----------------------------|
F|------2---------------------|
C|--7---2---4--2------------4-|
G|--4---0---4--2-----4x-----4-|
C|--0---x---4--2------------4-|

Part:IV
d|--------------------------------|
A|--------------------------------|
F|--------------------------------|
C|------------------------------2-|
G|-4----6-7--0----2-7-----7x----2-|
D|-4----6-7--0----2-7-----------2-|
    ....      ....

Intro:
d|------------------------------------------------------------------------------------------|
A|------------------------------------------------------------------------------------------|
F|------------------------------------------------------------------------------------------|
C|-7---6---44--x-----7---6----9-6-----7---6---44--x----7---6---9-6----4----4/0--5/0--44444--|
G|-4---4---44--7-----5---5----7-4-----4---4---44--7----5---5---7-4----4----4/0--5/0--44444--|
C|-4---4---44--4-----x---x----x-x-----4---4---44--4----x---x---x-x----4----4/0--5/0--44444--|
    ... ...           ... ...          ... ...          ... ...        ....

Part:I

I used to hate you
With no reason why
I was so angry
So full of pride
Lost in opinions and innuendoes
Knew everything that you didn't know
And i used to think i was sure i was right
And that i knew the truth from a lie


Part:II

I was so stupid when i was young
I was so stupid to think that i was


Part:III

So different
So different than you
So different than you are
I know it's sad but true
So different
I'm no different than you


Part:I

Was i just jealous, bitter a
And cold
The sins i committed
The lies that i told
Had no respect for you
Only myself
A memeory i'm not so fond of as well
And i can honestly say i was wrong
So can you forgive me so i can move on


Part:II

I was so stupid when i was young
I was so stupid to think that i was


Part:III

So different
So different than you
So different than you are
I know it's sad but true
So different
I'm no different than you


Part:IV

We are one in the same
Only with different names
Somethings are not worth changing
I learned to love by hating
We are one in the same
Your blood runs through my veins
Falls on deaf ears it's fading
I learned to love by hating


Part:II

I was so stupid when i was young
I was so stupid to think that i was


Part:III

So different
So different than you
So different than you are
I know it's sad but true
So different
I'm no different than you
Добавлено: 07.06.2012
Другие материалы по этой песне:
  • Аккорды и текст

Страница создана 07.06.2012
http://primanota.ru/exies/different-than-you-chords.htm
Привет, Гость.
Предлагаем пройти революционный курс по гитаре.
Подарок от PrimaNota.Ru, забирай!