PrimaNota.ru - самый крупный в мире бесплатный архив песенных текстов, аккордов, табулатур и нот


Exies - Fear Of Being Alone - текст песни, таба, видео

Регистрация Запомнить меня
Войти через:  Facebook Google Twitter Vk Yandex Mail.ru

Exies - Fear Of Being Alone - текст песни, таба, видео

Печатать
Просмотров: 228
The Exies - Fear of Being Alone (intro)

Guitar 1 - Scott Stevens
Guitar 2 - Chris Skane

INTRO
Guitar 1                   Both Guitars enter here - V
D|---------------------------------------------------------|
A|---------------------------------------------------------|
F|---------------------------------------------------6666--|
C|---------------------------------------------------xxxx--|
G|-----------------------------------------xxx-------4444--|
C|3-5-5-3-5-3-xxx-3-5-3-5-3-0--3-5-5-3-5-3-xxx-3-5-3-------|
  . . . . . .     . . . . . .  . .grad. release ->

Both Guitars
D|---------------------------------------------------------|
A|---------------------------------------------------------|
F|---------------------------------------------------------|
C|3-5-5-3-5-3-xxx-3-5-3-5-3-0--3-5-5-3-5-3-xxx-3-5-3-5-3-0-|
G|3-5-5-3-5-3-xxx-3-5-3-5-3-0--3-5-5-3-5-3-xxx-3-5-3-5-3-0-|
C|3-5-5-3-5-3-xxx-3-5-3-5-3-0--3-5-5-3-5-3-xxx-3-5-3-5-3-0-|

D|-----------------------------------------------------------|
A|-----------------------------------------------------------|
F|----------------------666----------------------------------|
C|3-5-5-3-5-3-xxx-3-5-3-xxx-555-8-7-555-8-7-555-8-7-555---333|
G|3-5-5-3-5-3-xxx-3-5-3-444-555-----555-----555-----555-x-333|
C|3-5-5-3-5-3-xxx-3-5-3-----555-----555-----555-----555-x-333|
Добавлено: 28.05.2012
Другие материалы по этой песне:

Страница создана 04.03.2012
http://primanota.ru/exies/fear-of-being-alone-chords.htm
Привет, Гость.
Предлагаем пройти революционный курс по гитаре.
Подарок от PrimaNota.Ru, забирай!