PrimaNota.ru - самый крупный в мире бесплатный архив песенных текстов, аккордов, табулатур и нот


Exies - Cant Relate - текст песни, таба, видео

Регистрация Запомнить меня
Войти через:  Facebook Google Twitter Vk Yandex Mail.ru

Exies - Cant Relate - текст песни, таба, видео

Печатать
Просмотров: 169
I really liked this song and wanted to learn it but no one had tabbed it out yet
 so i thought i might give it a try, hope you like. 

-------------------------------------------------------------------------------
                             Can't Relate - The Exies
-------------------------------------------------------------------------------
Tabbed by: modigity42
Email:modigity42@yahoo.com

Tuning: Standard

Verse    
e|---------------------|-----------------------------------------------------|
B|---------------------|-----------------------------------------------------|
G|---------------------|-------555555555555555-5-222222222222222-------------|
D|-22-222222222222222--|-x3--2-555555555555555-5-222222222222222-------------|
A|-22-222222222222222--|-----2-333333333333333-3-000000000000000-------------|
E|-00-000000000000000--|-----0-----------------------------------------------|
   **  **************        *  ************      **********

Verse Cont. 
e|---------------------|-----------------------------------------------------|
B|---------------------|-----------------------------------------------------|
G|---------------------|-------555555555555555-5-222222222-------------------|
D|-22-222222222222222--|-x2--2-555555555555555-5-222222222-------------------|
A|-22-222222222222222--|-----2-333333333333333-3-000000000-------------------|
E|-00-000000000000000--|-----0-----------------------------------------------|
   **  **************        *  ************      ********



Pre-Chorus Gtr. 1
e|---------------------------------------------------------------------------|
B|---------------------------------------------------------------------------|
G|-6666666644443333-|-----22222222-------------------------------------------|
D|-6666666644443333-|-x3--2222222266666666-----------------------------------|
A|-4444444422221111-|-----0000000066666666-----------------------------------|
E|--------------------------------44444444-----------------------------------|

Pre-Chorus Gtr. 2
e|---------------------------------------------------------------------------|
B|-14------|As Many times as needed-----------------------------------------|
G|-16b(18)-|----------------------------14-14-14-14-13-13-13-13--------------|
D|---------------------------------------------------------------------------|
A|---------------------------------------------------------------------------|
E|---------------------------------------------------------------------------|



Chorus Gtr.1  (Listen For Strum Pattern) 
e|---------------------------------------------------------------------------|
B|(4)---(13)---(6)---(9)-----------------------------------------------------|
G|(4)---(13)---(6)---(9)-----------------------------------------------------|
D|-2-----11-----4-----7------------------------------------------------------|
A|-2-----11-----4-----7------------------------------------------------------|
E|-0-----9------2-----5------------------------------------------------------|

Chorus Gtr. 2 (Comes in after first "Cant Relate" in chorus)
e|---------------------------------------------------------------------------|
B|---------------------------------------------------------------------------|
G|------------------|--------------------------------------------------------|
D|-6666222244442222-|-x3----66662222-----------------------------------------|
A|------------------|---------------33333333---------------------------------|
E|---------------------------------------------------------------------------|

Verse
Pre-Chorus
Chorus

Solo Gtr. 1 (11's, 13's, 17's Etc. not 1's, 3's, and 7's etc.) 
e|---------------------------------------------------------------------------|
B|------------------------------------------------------------|--------------|
G|-------999991111111313131313--17171717171616--14141414141313|-X2-----------|
D|-111111-----------------------------------------------------|--------------|
A|------------------------------------------------------------|--------------|
E|------------------------------------------------------------|--------------|

e|---------------------------------------------------------------------------|
B|---------------------------------------------------------------------------|
G|-14141414141313---14141414141313--1413141314131413-------------------------|
D|---------------------------------------------------------------------------|
A|---------------------------------------------------------------------------|
E|---------------------------------------------------------------------------|




| /  slide up
| \  slide down
| h  hammer-on
| p  pull-off
| ~  vibrato
| +  harmonic
| x  Mute note
===============================================================================
Добавлено: 02.03.2012
Другие материалы по этой песне:
  • Аккорды и текст

Страница создана 02.03.2012
http://primanota.ru/exies/cant-relate-chords.htm
Привет, Гость.
Предлагаем пройти революционный курс по гитаре.
Подарок от PrimaNota.Ru, забирай!