PrimaNota.ru - самый крупный в мире бесплатный архив песенных текстов, аккордов, табулатур и нот


Exies - A Modern Way Of Living With The Truth - таба, видео

Регистрация Запомнить меня
Войти через:  Facebook Google Twitter Vk Yandex Mail.ru

Exies - A Modern Way Of Living With The Truth - таба, видео

Печатать
Просмотров: 94
intro
d(-----------------------------------------)
a(-----------------------------------------)
f(------------------------------7----7-5/7-)
c(--------------------7----7-00-7-00-7-5/7-)
g(-----5----5----5-00-5-00-5-00-5-00-5-3/5-)
C(--00---00---00---00---00---00---00-------)

verse-1 x12
d(---------------)
a(---------------)
f(-----7-----5/7-)
c(--00-7-000-5/7-)
g(--00-5-000-3/5-)
C(--00---000-----)

verse-1 continued
d(----------)
a(----------)
f(----------)
c(--3---1---)
g(--3---1---)
C(--3---1---)

verse-1 continued x4
d(---------------)
a(---------------)
f(-----7-----5/7-)
c(--00-7-000-5/7-)
g(--00-5-000-3/5-)
C(--00---000-----)

verse-1 continued
d(----------)
a(----------)
f(----------)
c(--3---1---)
g(--3---1---)
C(--3---1---)

verse-1 continued  x2
d(---------------)
a(---------------)
f(-----7-----5/7-)
c(--00-7-000-5/7-)
g(--00-5-000-3/5-)
C(--00---000-----)

pre-chorus
d(------------------)
a(------------------)
f(--5555-4444-------)
c(--5555-4444-5-2-3-)
g(--3333-2222-5-2-3-)
C(------------5-2-3-)

chorus  
d(---------------------------------3-55-)
a(--------------------------------------)
f(--777777775555-4-5-44-----------------)
c(--777777775555-4-5-44-3333-3-3-55-----)
g(--555555553333-2-3-22-3333-3-3-55-----)
C(----------------------3333-3-3-55-----)

chorus continued 
d(---------------------------------3-55-)
a(--------------------------------------)
f(--777777775555-4-5-44-----------------)
c(--777777775555-4-5-44-3333-3-3-55-----)
g(--555555553333-2-3-22-3333-3-3-55-----)
C(----------------------3333-3-3-55-----)

chorus continued
d(-----------------------------------)
a(-----------------------------------)
f(-----------------------------------)
c(--44444444555555555555555533333333-)
g(--44444444555555555555555533333333-)
C(--44444444555555555555555533333333-)

verse-2  x12
d(---------------)
a(---------------)
f(-----7-----5/7-)
c(--00-7-000-5/7-)
g(--00-5-000-3/5-)
C(--00---000-----)

verse-2 continued
d(----------)
a(----------)
f(----------)
c(--3---6---)
g(--3---6---)
C(--3---6---)

verse-2 continued
d(---------------)
a(---------------)
f(-----7-----5/7-)
c(--00-7-000-5/7-)
g(--00-5-000-3/5-)
C(--00---000-----)

pre-chorus
d(------------------)
a(------------------)
f(--5555-4444-------)
c(--5555-4444-5-2-3-)
g(--3333-2222-5-2-3-)
C(------------5-2-3-)

chorus  
d(---------------------------------3-55-)
a(--------------------------------------)
f(--777777775555-4-5-44-----------------)
c(--777777775555-4-5-44-3333-3-3-55-----)
g(--555555553333-2-3-22-3333-3-3-55-----)
C(----------------------3333-3-3-55-----)

chorus continued 
d(---------------------------------3-55-)
a(--------------------------------------)
f(--777777775555-4-5-44-----------------)
c(--777777775555-4-5-44-3333-3-3-55-----)
g(--555555553333-2-3-22-3333-3-3-55-----)
C(----------------------3333-3-3-55-----)

chorus continued
d(-----------------------------------)
a(-----------------------------------)
f(-----------------------------------)
c(--44444444555555555555555533333333-)
g(--44444444555555555555555533333333-)
C(--44444444555555555555555533333333-)

bridge
d(---------------------------------)
a(--5b-----6---6---5-6---6-----6---)
f(-------------------------5-----3-)
c(---------------------------------)
g(-------3---1---------3-----1-----)
C(---------------------------------)

bridge continued
d(-------------------------------)
a(--5-6-5---5-6-5------6-----6---)
f(--------7-------7------5-----3-)
c(-------------------------------)
g(------------------3------1-----)
C(-------------------------------)

bridge continued   the last string is a harmonic
d(-------------------------12-)
a(--5-6-5----6--5-6-5---6-----)
f(--------7-----------7-------)
c(----------------------------)
g(----------------------------)
C(----------------------------)

bridge continued
d(-----------------------------------------)
a(-----------------------------------------)
f(------------------------------7----7-5/7-)
c(--------------------7----7-00-7-00-7-5/7-)
g(-----5----5----5-00-5-00-5-00-5-00-5-3/5-)
C(--00---00---00---00---00---00---00-------)

pre-chorus
d(------------------)
a(------------------)
f(--5555-4444-------)
c(--5555-4444-5-2-3-)
g(--3333-2222-5-2-3-)
C(------------5-2-3-)

chorus  play it a couple times
d(---------------------------------3-55-)
a(--------------------------------------)
f(--777777775555-4-5-44-----------------)
c(--777777775555-4-5-44-3333-3-3-55-----)
g(--555555553333-2-3-22-3333-3-3-55-----)
C(----------------------3333-3-3-55-----)

chorus continued 
d(---------------------------------3-55-)
a(--------------------------------------)
f(--777777775555-4-5-44-----------------)
c(--777777775555-4-5-44-3333-3-3-55-----)
g(--555555553333-2-3-22-3333-3-3-55-----)
C(----------------------3333-3-3-55-----)

chorus continued
d(-----------------------------------)
a(-----------------------------------)
f(-----------------------------------)
c(--44444444555555555555555533333333-)
g(--44444444555555555555555533333333-)
C(--44444444555555555555555533333333-)

lead on last chorus
d(--10/8-8-10/8-8-6/8///-)
a(-----------------------)
f(-----------------------)
c(-----------------------)
g(-----------------------)
C(-----------------------)
Добавлено: 23.05.2012
Другие материалы по этой песне:

Страница создана 23.05.2012
http://primanota.ru/exies/a-modern-way-of-living-with-the-truth-chords.htm
Привет, Гость.
Предлагаем пройти революционный курс по гитаре.
Подарок от PrimaNota.Ru, забирай!