PrimaNota.ru - самый крупный в мире бесплатный архив песенных текстов, аккордов, табулатур и нот


Evans Blue - This Time Its Different - текст песни, таба, видео

Регистрация Запомнить меня
Войти через:  Facebook Google Twitter Vk Yandex Mail.ru

Evans Blue - This Time Its Different - текст песни, таба, видео

Печатать
Просмотров: 283
----------------------------------------------------------------------------
                          This Time It's Different
                               Evans Blue
----------------------------------------------------------------------------

Hello, I've just been so amazed by how this band progressed. Even after the lose of
Kevin, their new singer is keeping the band alive. This song shows that they are growing as
a band, and I am so glad. They are underrated, and need attention. So, hopefully this 
tab works, and if you need visual aid, you can always check out my cover. Enjoy!

Username: dkm817 (same on X box live)
Youtube Cover: http://www.youtube.com/watch?v=ZrmaJDpvmr0
Email: guitardrums@rockfan.com

Guitar 1 Rhythmic (C G C F A D)
Guitar 2 Lead     (C G C F A D)
Guitar 3 Piano    (C G C F A D)

Tab Guide...

==================================================================
(end of measures)

==================================================================
==================================================================
(end of parts)

==================================================================
==================================================================
==================================================================
(end of song)

(If there is a “continued” it is because the numbers could not
fit on 1 line.)


Intro 1

Guitar 3 (Fade In)
D-5~~~~~~~~~~~~~~~~~~~~~~~~~~~~~~-5~~~~~~~~~~~~~~~~~~~~~~~~~~~~~~-
A-----------------6~~~~~~~~~~~~~~~~~~~~~~~~~~~~~~-6~~~~~~~~~~~~~~-|
F---------7~~~~~~~~~~~~~~-7~~~~~~~~~~~~~~-7~~~~~~~~~~~~~~-7~~~~~~-|
C-----------------------------------------------------------------|
G-----------------------------------------------------------------|
C-----------------------------------------------------------------|

==================================================================

Guitar 3
D-6~~~~~~~~~~~~~~~~~~~~~~~~~~~~~~-6~~~~~~~~~~~~~~~~~~~~~~~~~~~~~~-
A-----------------6~~~~~~~~~~~~~~~~~~~~~~~~~~~~~~-6~~~~~~-8~~~~~~-|
F---------7~~~~~~~~~~~~~~-7~~~~~~~~~~~~~~-7~~~~~~~~~~~~~~~~~~~~~~-|
C-----------------------------------------------------------------|
G-----------------------------------------------------------------|
C-----------------------------------------------------------------|

==================================================================

Guitar 1 (Fade In) Clean
D-----------------------------------------------------------------|
A-----------------------------------------------------------------|
F-2---2---2---2---2---2---2---2---2---2---2---2---2---2---2---2---|
C-0---0---0---0---0---0---0---0---0---0---0---0---0---0---0---0---|
G-----------------------------------------------------------------|
C-----------------------------------------------------------------|

Guitar 2 (Fade In)
D-----------------------------------------------------------------
A-10~~~~~~~~~~~~~~~~~~~~~~~~~~~~~~~~~~~~~~~~~~~~~~~~~~~~~~~~~~~~~-
F-----------------------------------------------------------------|
C-----------------------------------------------------------------|
G-----------------------------------------------------------------|
C-----------------------------------------------------------------|

Guitar 3
D-5~~~~~~~~~~~~~~~~~~~~~~~~~~~~~~-5~~~~~~~~~~~~~~~~~~~~~~~~~~~~~~-
A-----------------6~~~~~~~~~~~~~~~~~~~~~~~~~~~~~~-6~~~~~~~~~~~~~~-|
F---------7~~~~~~~~~~~~~~-7~~~~~~~~~~~~~~-7~~~~~~~~~~~~~~-7~~~~~~-|
C-----------------------------------------------------------------|
G-----------------------------------------------------------------|
C-----------------------------------------------------------------|

==================================================================

Guitar 1
D-----------------------------------------------------------------|
A-----------------------------------------------------------------|
F-3---3---3---3---3---3---3---3---0---0---0---0---0---0---0---0---|
C-0---0---0---0---0---0---0---0---0---0---0---0---0---0---0---0---|
G-----------------------------------------------------------------|
C-----------------------------------------------------------------|

Guitar 3
D-6~~~~~~~~~~~~~~~~~~~~~~~~~~~~~~-6~~~~~~~~~~~~~~~~~~~~~~~~~~~~~~-
A-----------------6~~~~~~~~~~~~~~~~~~~~~~~~~~~~~~-6~~~~~~-8~~~~~~-|
F---------7~~~~~~~~~~~~~~-7~~~~~~~~~~~~~~-7~~~~~~~~~~~~~~~~~~~~~~-|
C-----------------------------------------------------------------|
G-----------------------------------------------------------------|
C-----------------------------------------------------------------|

==================================================================

Guitar 1
D-----------------------------------------------------------------|
A-----------------------------------------------------------------|
F-2---2---2---2---2---2---2---2---2---2---2---2---2---2---2---2---|
C-0---0---0---0---0---0---0---0---0---0---0---0---0---0---0---0---|
G-----------------------------------------------------------------|
C-----------------------------------------------------------------|

Guitar 2 (Fade In)
D-----------------------------------------------------------------|
A---------------------------------10~~~~~~~~~~~~~~~~~~~~~~~~~~~~~-|
F-----------------------------------------------------------------|
C-----------------------------------------------------------------|
G-----------------------------------------------------------------|
C-----------------------------------------------------------------|

Guitar 3
D-5~~~~~~~~~~~~~~~~~~~~~~~~~~~~~~-5~~~~~~~~~~~~~~~~~~~~~~~~~~~~~~-
A-----------------6~~~~~~~~~~~~~~~~~~~~~~~~~~~~~~-6~~~~~~~~~~~~~~-|
F---------7~~~~~~~~~~~~~~-7~~~~~~~~~~~~~~-7~~~~~~~~~~~~~~-7~~~~~~-|
C-----------------------------------------------------------------|
G-----------------------------------------------------------------|
C-----------------------------------------------------------------|

==================================================================

Guitar 1
D-----------------------------------------------------------------|
A-----------------------------------------------------------------|
F-3---3---3---3---3---3---3---3---0~~~~~~~~~~~~~~~~~~~~~~~~~~~~~~-|
C-0---0---0---0---0---0---0---0---0~~~~~~~~~~~~~~~~~~~~~~~~~~~~~~-|
G-----------------------------------------------------------------|
C-----------------------------------------------------------------|

Guitar 2
D-----------------------------------------------------------------
A-~~~~~~~~~~~~~~~~~~~~~~~~~~~~~~~~~~~~~~~~~~~~~~~~~~~~~~~~~~~~~~~-
F-----------------------------------------------------------------|
C-----------------------------------------------------------------|
G-----------------------------------------------------------------|
C-----------------------------------------------------------------|

Guitar 3
D-6~~~~~~~~~~~~~~~~~~~~~~~~~~~~~~~~~~~~~~~~~~~~~~~~~~~~~~~~~~~~~~-
A-----------------6~~~~~~~~~~~~~~-8~~~~~~~~~~~~~~~~~~~~~~~~~~~~~~-|
F---------7~~~~~~~~~~~~~~-7~~~~~~~~~~~~~~~~~~~~~~~~~~~~~~~~~~~~~~-|
C-----------------------------------------------------------------|
G-----------------------------------------------------------------|
C-----------------------------------------------------------------|

==================================================================
==================================================================


Intro 2

(x2)

Guitar 1 Distorted
D-----------------------------------------------------------------|
A-----------------------------------------------------------------|
F-----------------------------------------------------------------|
C-0---0---0---0---0---0---0---0---0---0---0---0---0---0---0---0---|
G-0---0---0---0---0---0---0---0---0---0---0---0---0---0---0---0---|
C-0---0---0---0---0---0---0---0---0---0---0---0---0---0---0---0---|

Guitar 2
D-----------------------------------------------------------------|
A-10----------8---10----------8---10----------8---10----------8---|
F-----7---10----------7---10----------7---10----------7---10------|
C-----------------------------------------------------------------|
G-----------------------------------------------------------------|
C-----------------------------------------------------------------|

==================================================================

Guitar 1
D-----------------------------------------------------------------|
A-----------------------------------------------------------------|
F-----------------------------------------------------------------|
C-8---8---8---8---8---8---8---8---5---5---5---5---5---5---5---5---|
G-8---8---8---8---8---8---8---8---5---5---5---5---5---5---5---5---|
C-8---8---8---8---8---8---8---8---5---5---5---5---5---5---5---5---|

Guitar 2
D-----------------------------------------------------------------|
A-11----------8---11----------8---11----------8---11----------8---|
F-----7---10----------7---10----------7---10----------7---10------|
C-----------------------------------------------------------------|
G-----------------------------------------------------------------|
C-----------------------------------------------------------------|

==================================================================
==================================================================


Verse 1

Guitar 1 Clean
D-----------------------------------------------------------------|
A-----------------------------------------------------------------|
F-2---2---2---2---2---2---2---2---2---2---2---2---2---2---2---2---|
C-0---0---0---0---0---0---0---0---0---0---0---0---0---0---0---0---|
G-----------------------------------------------------------------|
C-----------------------------------------------------------------|

Guitar 3
D-5~~~~~~~~~~~~~~~~~~~~~~~~~~~~~~-5~~~~~~~~~~~~~~~~~~~~~~~~~~~~~~-
A-----------------6~~~~~~~~~~~~~~~~~~~~~~~~~~~~~~-6~~~~~~~~~~~~~~-|
F---------7~~~~~~~~~~~~~~-7~~~~~~~~~~~~~~-7~~~~~~~~~~~~~~-7~~~~~~-|
C-----------------------------------------------------------------|
G-----------------------------------------------------------------|
C-----------------------------------------------------------------|

==================================================================

Guitar 1
D-----------------------------------------------------------------|
A-----------------------------------------------------------------|
F-3---3---3---3---3---3---3---3---0---0---0---0---0---0---0---0---|
C-0---0---0---0---0---0---0---0---0---0---0---0---0---0---0---0---|
G-----------------------------------------------------------------|
C-----------------------------------------------------------------|

Guitar 3
D-6~~~~~~~~~~~~~~~~~~~~~~~~~~~~~~-6~~~~~~~~~~~~~~~~~~~~~~~~~~~~~~-
A-----------------6~~~~~~~~~~~~~~~~~~~~~~~~~~~~~~-6~~~~~~-8~~~~~~-|
F---------7~~~~~~~~~~~~~~-7~~~~~~~~~~~~~~-7~~~~~~~~~~~~~~~~~~~~~~-|
C-----------------------------------------------------------------|
G-----------------------------------------------------------------|
C-----------------------------------------------------------------|

==================================================================

Guitar 1
D-----------------------------------------------------------------|
A-----------------------------------------------------------------|
F-2---2---2---2---2---2---2---2---2---2---2---2---2---2---2---2---|
C-0---0---0---0---0---0---0---0---0---0---0---0---0---0---0---0---|
G-----------------------------------------------------------------|
C-----------------------------------------------------------------|

Guitar 3
D-5~~~~~~~~~~~~~~~~~~~~~~~~~~~~~~-5~~~~~~~~~~~~~~~~~~~~~~~~~~~~~~-
A-----------------6~~~~~~~~~~~~~~~~~~~~~~~~~~~~~~-6~~~~~~~~~~~~~~-|
F---------7~~~~~~~~~~~~~~-7~~~~~~~~~~~~~~-7~~~~~~~~~~~~~~-7~~~~~~-|
C-----------------------------------------------------------------|
G-----------------------------------------------------------------|
C-----------------------------------------------------------------|

==================================================================

Guitar 1
D-----------------------------------------------------------------|
A-----------------------------------------------------------------|
F-3---3---3---3---3---3---3---3---0---0---0---0---0---0---0---0---|
C-0---0---0---0---0---0---0---0---0---0---0---0---0---0---0---0---|
G-----------------------------------------------------------------|
C-----------------------------------------------------------------|

Guitar 3
D-6~~~~~~~~~~~~~~~~~~~~~~~~~~~~~~-6~~~~~~~~~~~~~~~~~~~~~~-8~~~~~~-|
A-----------------6~~~~~~~~~~~~~~~~~~~~~~~~~~~~~~-6~~~~~~~~~~~~~~-|
F---------7~~~~~~~~~~~~~~-7~~~~~~~~~~~~~~-7~~~~~~~~~~~~~~~~~~~~~~-|
C-----------------------------------------------------------------|
G-----------------------------------------------------------------|
C-----------------------------------------------------------------|

==================================================================

Guitar 1
D-----------------------------------------------------------------|
A-----------------------------------------------------------------|
F-2---2---2---2---2---2---2---2---2---2---2---2---2---2---2---2---|
C-0---0---0---0---0---0---0---0---0---0---0---0---0---0---0---0---|
G-----------------------------------------------------------------|
C-----------------------------------------------------------------|

Guitar 3
D-5~~~~~~~~~~~~~~~~~~~~~~~~~~~~~~-5~~~~~~~~~~~~~~~~~~~~~~~~~~~~~~-
A-----------------6~~~~~~~~~~~~~~~~~~~~~~~~~~~~~~-6~~~~~~~~~~~~~~-|
F---------7~~~~~~~~~~~~~~-7~~~~~~~~~~~~~~-7~~~~~~~~~~~~~~-7~~~~~~-|
C-----------------------------------------------------------------|
G-----------------------------------------------------------------|
C-----------------------------------------------------------------|

==================================================================

Guitar 1
D-----------------------------------------------------------------|
A-----------------------------------------------------------------|
F-3---3---3---3---3---3---3---3---0~~~~~~~~~~~~~~~~~~~~~~~~~~~~~~-|
C-0---0---0---0---0---0---0---0---0~~~~~~~~~~~~~~~~~~~~~~~~~~~~~~-|
G-----------------------------------------------------------------|
C-----------------------------------------------------------------|

Guitar 3
D-6~~~~~~~~~~~~~~~~~~~~~~~~~~~~~~-6~~~~~~~~~~~~~~~~~~~~~~~~~~~~~~-
A-----------------6~~~~~~~~~~~~~~-8~~~~~~~~~~~~~~~~~~~~~~~~~~~~~~-|
F---------7~~~~~~~~~~~~~~-7~~~~~~-7~~~~~~~~~~~~~~~~~~~~~~~~~~~~~~-|
C-----------------------------------------------------------------|
G-----------------------------------------------------------------|
C-----------------------------------------------------------------|

==================================================================
==================================================================


Pre Chorus

Guitar 1 Distorted
D-----------------------------------------------------------------|
A-----------------------------------------------------------------|
F-----------------------------------------------------------------|
C-0---0---0---0---0---0---0---0---0---0---0---0---0---0---0---0---|
G-0---0---0---0---0---0---0---0---0---0---0---0---0---0---0---0---|
C-0---0---0---0---0---0---0---0---0---0---0---0---0---0---0---0---|

Guitar 2
D-----------------------------------------------------------------|
A-10----------8---10----------8---10----------8---10----------8---|
F-----7---10----------7---10----------7---10----------7---10------|
C-----------------------------------------------------------------|
G-----------------------------------------------------------------|
C-----------------------------------------------------------------|

==================================================================

Guitar 1
D-----------------------------------------------------------------|
A-----------------------------------------------------------------|
F-----------------------------------------------------------------|
C-8---8---8---8---8---8---8---8---5---5---5---5---5---5---5---5---|
G-8---8---8---8---8---8---8---8---5---5---5---5---5---5---5---5---|
C-8---8---8---8---8---8---8---8---5---5---5---5---5---5---5---5---|

Guitar 2
D-----------------------------------------------------------------|
A-11----------8---11----------8---11----------8---11----------8---|
F-----7---10----------7---10----------7---10----------7---10------|
C-----------------------------------------------------------------|
G-----------------------------------------------------------------|
C-----------------------------------------------------------------|

==================================================================

Guitar 1
D-----------------------------------------------------------------|
A-----------------------------------------------------------------|
F-----------------------------------------------------------------|
C-0---0---0---0---0---0---0---0---0---0---0---0---0---0---0---0---|
G-0---0---0---0---0---0---0---0---0---0---0---0---0---0---0---0---|
C-0---0---0---0---0---0---0---0---0---0---0---0---0---0---0---0---|

Guitar 2
D-----------------------------------------------------------------|
A-10----------8---10----------8---10----------8---10----------8---|
F-----7---10----------7---10----------7---10----------7---10------|
C-----------------------------------------------------------------|
G-----------------------------------------------------------------|
C-----------------------------------------------------------------|

==================================================================

Guitar 1
D-----------------------------------------------------------------|
A-----------------------------------------------------------------|
F-----------------------------------------------------------------|
C-8---8---8---8---8---8---8---8---5---5---5---5---5---5---5---5---|
G-8---8---8---8---8---8---8---8---5---5---5---5---5---5---5---5---|
C-8---8---8---8---8---8---8---8---5---5---5---5---5---5---5---5---|
pm                                .   .   .   .   .   .   .   .

Guitar 2
D-----------------------------------------------------------------|
A-11----------8---11----------8-----------------------------------|
F-----7---10----------7---10--------------------------------------|
C---------------------------------5---5---5---5---5---5---5---5---|
G---------------------------------5---5---5---5---5---5---5---5---|
C---------------------------------5---5---5---5---5---5---5---5---|
pm                                .   .   .   .   .   .   .   .


==================================================================
==================================================================


Chorus 1

Guitar 1 & 2
D-----------------------------------------------------------------|
A-----------------------------------------------------------------|
F-----------------------------------------------------------------|
C-0---0-------0---0-------0---0-------0---0-------0---0---0---0---|
G-0---0-------0---0-------0---0-------0---0-------0---0---0---0---|
C-0---0-------0---0-------0---0-------0---0-------0---0---0---0---|
pm.   .       .   .       .   .       .   .       .   .   .   .

==================================================================

Guitar 1
D-----------------------------------------------------------------|
A-----------------------------------------------------------------|
F-----------------------------------------------------------------|
C-8---8---8---8---8---8---8---5~~~~~~-5---5---5---5---5---5---5---|
G-8---8---8---8---8---8---8---5~~~~~~-5---5---5---5---5---5---5---|
C-8---8---8---8---8---8---8---5~~~~~~-5---5---5---5---5---5---5---|

Guitar 2
D-----------------------------------------------------------------|
A-11----------8---11----------8---11----------8---11----------8---|
F-----7---10----------7---10----------7---10----------7---10------|
C-----------------------------------------------------------------|
G-----------------------------------------------------------------|
C-----------------------------------------------------------------|

==================================================================

Guitar 1
D-----------------------------------------------------------------|
A-----------------------------------------------------------------|
F-----------------------------------------------------------------|
C-0---0-------0---0-------0---0-------0---0-------0---0---0---0---|
G-0---0-------0---0-------0---0-------0---0-------0---0---0---0---|
C-0---0-------0---0-------0---0-------0---0-------0---0---0---0---|
pm.   .       .   .       .   .       .   .       .   .   .   .

Guitar 2
D-----------------------------------------------------------------|
A-10----------8---10----------8---10----------8---10----------8---|
F-----7---10----------7---10----------7---10----------7---10------|
C-----------------------------------------------------------------|
G-----------------------------------------------------------------|
C-----------------------------------------------------------------|

==================================================================

Guitar 1
D-----------------------------------------------------------------|
A-----------------------------------------------------------------|
F-----------------------------------------------------------------|
C-8---8---8---8---8---8---8---5~~~~~~-5---5---5---5---5---5---5---|
G-8---8---8---8---8---8---8---5~~~~~~-5---5---5---5---5---5---5---|
C-8---8---8---8---8---8---8---5~~~~~~-5---5---5---5---5---5---5---|

Guitar 2
D-----------------------------------------------------------------|
A-11----------8---11----------8---11----------8---11----------8---|
F-----7---10----------7---10----------7---10----------7---10------|
C-----------------------------------------------------------------|
G-----------------------------------------------------------------|
C-----------------------------------------------------------------|

==================================================================
==================================================================


Verse 2

Guitar 1 Clean
D-----------------------------------------------------------------|
A-----------------------------------------------------------------|
F-2---2---2---2---2---2---2---2---2---2---2---2---2---2---2---2---|
C-0---0---0---0---0---0---0---0---0---0---0---0---0---0---0---0---|
G-----------------------------------------------------------------|
C-----------------------------------------------------------------|

Guitar 3
D-5~~~~~~~~~~~~~~~~~~~~~~~~~~~~~~-5~~~~~~~~~~~~~~~~~~~~~~~~~~~~~~-
A-----------------6~~~~~~~~~~~~~~~~~~~~~~~~~~~~~~-6~~~~~~~~~~~~~~-|
F---------7~~~~~~~~~~~~~~-7~~~~~~~~~~~~~~-7~~~~~~~~~~~~~~-7~~~~~~-|
C-----------------------------------------------------------------|
G-----------------------------------------------------------------|
C-----------------------------------------------------------------|

==================================================================

Guitar 1
D-----------------------------------------------------------------|
A-----------------------------------------------------------------|
F-3---3---3---3---3---3---3---3---0---0---0---0---0---0---0---0---|
C-0---0---0---0---0---0---0---0---0---0---0---0---0---0---0---0---|
G-----------------------------------------------------------------|
C-----------------------------------------------------------------|

Guitar 3
D-6~~~~~~~~~~~~~~~~~~~~~~~~~~~~~~-6~~~~~~~~~~~~~~~~~~~~~~~~~~~~~~-
A-----------------6~~~~~~~~~~~~~~~~~~~~~~~~~~~~~~-6~~~~~~-8~~~~~~-|
F---------7~~~~~~~~~~~~~~-7~~~~~~~~~~~~~~-7~~~~~~~~~~~~~~~~~~~~~~-|
C-----------------------------------------------------------------|
G-----------------------------------------------------------------|
C-----------------------------------------------------------------|

==================================================================

Guitar 1
D-----------------------------------------------------------------|
A-----------------------------------------------------------------|
F-2---2---2---2---2---2---2---2---2---2---2---2---2---2---2---2---|
C-0---0---0---0---0---0---0---0---0---0---0---0---0---0---0---0---|
G-----------------------------------------------------------------|
C-----------------------------------------------------------------|

Guitar 3
D-5~~~~~~~~~~~~~~~~~~~~~~~~~~~~~~-5~~~~~~~~~~~~~~~~~~~~~~~~~~~~~~-
A-----------------6~~~~~~~~~~~~~~~~~~~~~~~~~~~~~~-6~~~~~~~~~~~~~~-|
F---------7~~~~~~~~~~~~~~-7~~~~~~~~~~~~~~-7~~~~~~~~~~~~~~-7~~~~~~-|
C-----------------------------------------------------------------|
G-----------------------------------------------------------------|
C-----------------------------------------------------------------|

==================================================================

Guitar 1
D-----------------------------------------------------------------|
A-----------------------------------------------------------------|
F-3---3---3---3---3---3---3---3---0---0---0---0---0---0---0---0---|
C-0---0---0---0---0---0---0---0---0---0---0---0---0---0---0---0---|
G-----------------------------------------------------------------|
C-----------------------------------------------------------------|

Guitar 3
D-6~~~~~~~~~~~~~~~~~~~~~~~~~~~~~~-6~~~~~~~~~~~~~~~~~~~~~~~~~~~~~~-
A-----------------6~~~~~~~~~~~~~~~~~~~~~~~~~~~~~~-6~~~~~~-8~~~~~~-|
F---------7~~~~~~~~~~~~~~-7~~~~~~~~~~~~~~-7~~~~~~~~~~~~~~~~~~~~~~-|
C-----------------------------------------------------------------|
G-----------------------------------------------------------------|
C-----------------------------------------------------------------|

==================================================================

Guitar 1
D-----------------------------------------------------------------|
A-----------------------------------------------------------------|
F-2---2---2---2---2---2---2---2---2---2---2---2---2---2---2---2---|
C-0---0---0---0---0---0---0---0---0---0---0---0---0---0---0---0---|
G-----------------------------------------------------------------|
C-----------------------------------------------------------------|

Guitar 3
D-5~~~~~~~~~~~~~~~~~~~~~~~~~~~~~~-5~~~~~~~~~~~~~~~~~~~~~~~~~~~~~~-
A-----------------6~~~~~~~~~~~~~~~~~~~~~~~~~~~~~~-6~~~~~~~~~~~~~~-|
F---------7~~~~~~~~~~~~~~-7~~~~~~~~~~~~~~-7~~~~~~~~~~~~~~-7~~~~~~-|
C-----------------------------------------------------------------|
G-----------------------------------------------------------------|
C-----------------------------------------------------------------|

==================================================================

Guitar 1
D-----------------------------------------------------------------|
A-----------------------------------------------------------------|
F-3---3---3---3---3---3---3---3---0---0---0---0---0---0---0---0---|
C-0---0---0---0---0---0---0---0---0---0---0---0---0---0---0---0---|
G-----------------------------------------------------------------|
C-----------------------------------------------------------------|

Guitar 3
D-6~~~~~~~~~~~~~~~~~~~~~~~~~~~~~~-6~~~~~~~~~~~~~~~~~~~~~~-8~~~~~~-|
A-----------------6~~~~~~~~~~~~~~~~~~~~~~~~~~~~~~-6~~~~~~~~~~~~~~-|
F---------7~~~~~~~~~~~~~~-7~~~~~~~~~~~~~~-7~~~~~~~~~~~~~~~~~~~~~~-|
C-----------------------------------------------------------------|
G-----------------------------------------------------------------|
C-----------------------------------------------------------------|

==================================================================

Guitar 1
D-----------------------------------------------------------------|
A-----------------------------------------------------------------|
F-2---2---2---2---2---2---2---2---2---2---2---2---2---2---2---2---|
C-0---0---0---0---0---0---0---0---0---0---0---0---0---0---0---0---|
G-----------------------------------------------------------------|
C-----------------------------------------------------------------|

Guitar 3
D-5~~~~~~~~~~~~~~~~~~~~~~~~~~~~~~-5~~~~~~~~~~~~~~~~~~~~~~~~~~~~~~-
A-----------------6~~~~~~~~~~~~~~~~~~~~~~~~~~~~~~-6~~~~~~~~~~~~~~-|
F---------7~~~~~~~~~~~~~~-7~~~~~~~~~~~~~~-7~~~~~~~~~~~~~~-7~~~~~~-|
C-----------------------------------------------------------------|
G-----------------------------------------------------------------|
C-----------------------------------------------------------------|

==================================================================

Guitar 1
D-----------------------------------------------------------------|
A-----------------------------------------------------------------|
F-3---3---3---3---3---3---3---3---0~~~~~~~~~~~~~~~~~~~~~~~~~~~~~~-|
C-0---0---0---0---0---0---0---0---0~~~~~~~~~~~~~~~~~~~~~~~~~~~~~~-|
G-----------------------------------------------------------------|
C-----------------------------------------------------------------|

Guitar 3
D-6~~~~~~~~~~~~~~~~~~~~~~~~~~~~~~-6~~~~~~~~~~~~~~~~~~~~~~~~~~~~~~-
A-----------------6~~~~~~~~~~~~~~-8~~~~~~~~~~~~~~~~~~~~~~~~~~~~~~-|
F---------7~~~~~~~~~~~~~~-7~~~~~~-7~~~~~~~~~~~~~~~~~~~~~~~~~~~~~~-|
C-----------------------------------------------------------------|
G-----------------------------------------------------------------|
C-----------------------------------------------------------------|

==================================================================
==================================================================


Pre Chorus

Guitar 1 Distorted
D-----------------------------------------------------------------|
A-----------------------------------------------------------------|
F-----------------------------------------------------------------|
C-0---0---0---0---0---0---0---0---0---0---0---0---0---0---0---0---|
G-0---0---0---0---0---0---0---0---0---0---0---0---0---0---0---0---|
C-0---0---0---0---0---0---0---0---0---0---0---0---0---0---0---0---|

Guitar 2
D-----------------------------------------------------------------|
A-10----------8---10----------8---10----------8---10----------8---|
F-----7---10----------7---10----------7---10----------7---10------|
C-----------------------------------------------------------------|
G-----------------------------------------------------------------|
C-----------------------------------------------------------------|

==================================================================

Guitar 1
D-----------------------------------------------------------------|
A-----------------------------------------------------------------|
F-----------------------------------------------------------------|
C-8---8---8---8---8---8---8---8---5---5---5---5---5---5---5---5---|
G-8---8---8---8---8---8---8---8---5---5---5---5---5---5---5---5---|
C-8---8---8---8---8---8---8---8---5---5---5---5---5---5---5---5---|

Guitar 2
D-----------------------------------------------------------------|
A-11----------8---11----------8---11----------8---11----------8---|
F-----7---10----------7---10----------7---10----------7---10------|
C-----------------------------------------------------------------|
G-----------------------------------------------------------------|
C-----------------------------------------------------------------|

==================================================================

Guitar 1
D-----------------------------------------------------------------|
A-----------------------------------------------------------------|
F-----------------------------------------------------------------|
C-0---0---0---0---0---0---0---0---0---0---0---0---0---0---0---0---|
G-0---0---0---0---0---0---0---0---0---0---0---0---0---0---0---0---|
C-0---0---0---0---0---0---0---0---0---0---0---0---0---0---0---0---|

Guitar 2
D-----------------------------------------------------------------|
A-10----------8---10----------8---10----------8---10----------8---|
F-----7---10----------7---10----------7---10----------7---10------|
C-----------------------------------------------------------------|
G-----------------------------------------------------------------|
C-----------------------------------------------------------------|

==================================================================

Guitar 1
D-----------------------------------------------------------------|
A-----------------------------------------------------------------|
F-----------------------------------------------------------------|
C-8---8---8---8---8---8---8---8---5---5---5---5---5---5---5---5---|
G-8---8---8---8---8---8---8---8---5---5---5---5---5---5---5---5---|
C-8---8---8---8---8---8---8---8---5---5---5---5---5---5---5---5---|
pm                                .   .   .   .   .   .   .   .

Guitar 2
D-----------------------------------------------------------------|
A-11----------8---11----------8-----------------------------------|
F-----7---10----------7---10--------------------------------------|
C---------------------------------5---5---5---5---5---5---5---5---|
G---------------------------------5---5---5---5---5---5---5---5---|
C---------------------------------5---5---5---5---5---5---5---5---|
pm                                .   .   .   .   .   .   .   .


==================================================================
==================================================================


Chorus 1

Guitar 1 & 2
D-----------------------------------------------------------------|
A-----------------------------------------------------------------|
F-----------------------------------------------------------------|
C-0---0-------0---0-------0---0-------0---0-------0---0---0---0---|
G-0---0-------0---0-------0---0-------0---0-------0---0---0---0---|
C-0---0-------0---0-------0---0-------0---0-------0---0---0---0---|
pm.   .       .   .       .   .       .   .       .   .   .   .

==================================================================

Guitar 1
D-----------------------------------------------------------------|
A-----------------------------------------------------------------|
F-----------------------------------------------------------------|
C-8---8---8---8---8---8---8---5~~~~~~-5---5---5---5---5---5---5---|
G-8---8---8---8---8---8---8---5~~~~~~-5---5---5---5---5---5---5---|
C-8---8---8---8---8---8---8---5~~~~~~-5---5---5---5---5---5---5---|

Guitar 2
D-----------------------------------------------------------------|
A-11----------8---11----------8---11----------8---11----------8---|
F-----7---10----------7---10----------7---10----------7---10------|
C-----------------------------------------------------------------|
G-----------------------------------------------------------------|
C-----------------------------------------------------------------|

==================================================================

Guitar 1
D-----------------------------------------------------------------|
A-----------------------------------------------------------------|
F-----------------------------------------------------------------|
C-0---0-------0---0-------0---0-------0---0-------0---0---0---0---|
G-0---0-------0---0-------0---0-------0---0-------0---0---0---0---|
C-0---0-------0---0-------0---0-------0---0-------0---0---0---0---|
pm.   .       .   .       .   .       .   .       .   .   .   .

Guitar 2
D-----------------------------------------------------------------|
A-10----------8---10----------8---10----------8---10----------8---|
F-----7---10----------7---10----------7---10----------7---10------|
C-----------------------------------------------------------------|
G-----------------------------------------------------------------|
C-----------------------------------------------------------------|

==================================================================

Guitar 1
D-----------------------------------------------------------------|
A-----------------------------------------------------------------|
F-----------------------------------------------------------------|
C-8---8---8---8---8---8---8---5~~~~~~-5---5---5---5---5---5---5---|
G-8---8---8---8---8---8---8---5~~~~~~-5---5---5---5---5---5---5---|
C-8---8---8---8---8---8---8---5~~~~~~-5---5---5---5---5---5---5---|

Guitar 2
D-----------------------------------------------------------------|
A-11----------8---11----------8---11----------8---11----------8---|
F-----7---10----------7---10----------7---10----------7---10------|
C-----------------------------------------------------------------|
G-----------------------------------------------------------------|
C-----------------------------------------------------------------|

==================================================================
==================================================================


Breakdown

Guitar 1
D-----------------------------------------------------------------|
A-6~~~~~~-----------------6-------6~~~~~~-----------------6-------|
F-x-----------------------x-------x-----------------------x-------|
C-3~~~~~~-0---0---0---0---3---0---3~~~~~~-0---0---0---0---3---0---|
G---------0---0---0---0-------0-----------0---0---0---0-------0---|
C---------0---0---0---0-------0-----------0---0---0---0-------0---|
pm        .   .   .   .       .           .   .   .   .       .

Guitar 2
D-----------------------------------------------------------------|
A-----------------------------------------------------------------|
F-7~~~~~~-----------------7-------7~~~~~~-----------------7-------|
C-x-------0---0---0---0---x---0---x-------0---0---0---0---x---0---|
G-5~~~~~~-0---0---0---0---5---0---5~~~~~~-0---0---0---0---5---0---|
C---------0---0---0---0-------0-----------0---0---0---0-------0---|
pm        .   .   .   .       .           .   .   .   .       .


==================================================================

Guitar 1
D-----------------------------------------------------------------|
A-5~~~~~~-----------------5-------5~~~~~~-----------------5-------|
F-x-----------------------x-------x-----------------------x-------|
C-2~~~~~~-0---0---0---0---2---0---2~~~~~~-0---0---0---0---2---0---|
G---------0---0---0---0-------0-----------0---0---0---0-------0---|
C---------0---0---0---0-------0-----------0---0---0---0-------0---|
pm        .   .   .   .       .           .   .   .   .       .


Guitar 2
D-----------------------------------------------------------------|
A-----------------------------------------------------------------|
F-5~~~~~~-----------------5-------5~~~~~~-----------------5-------|
C-x-------0---0---0---0---x---0---x-------0---0---0---0---x---0---|
G-3~~~~~~-0---0---0---0---3---0---3~~~~~~-0---0---0---0---3---0---|
C---------0---0---0---0-------0-----------0---0---0---0-------0---|
pm        .   .   .   .       .           .   .   .   .       .


==================================================================

Guitar 1
D-----------------------------------------------------------------|
A-6~~~~~~-----------------6-------6~~~~~~-----------------6-------|
F-x-----------------------x-------x-----------------------x-------|
C-3~~~~~~-0---0---0---0---3---0---3~~~~~~-0---0---0---0---3---0---|
G---------0---0---0---0-------0-----------0---0---0---0-------0---|
C---------0---0---0---0-------0-----------0---0---0---0-------0---|
pm        .   .   .   .       .           .   .   .   .       .


Guitar 2
D-----------------------------------------------------------------|
A-----------------------------------------------------------------|
F-7~~~~~~-----------------7-------7~~~~~~-----------------7-------|
C-x-------0---0---0---0---x---0---x-------0---0---0---0---x---0---|
G-5~~~~~~-0---0---0---0---5---0---5~~~~~~-0---0---0---0---5---0---|
C---------0---0---0---0-------0-----------0---0---0---0-------0---|
pm        .   .   .   .       .           .   .   .   .       .


==================================================================

Guitar 1 & 2
D-----------------------------------------------------------------|
A-8~~~~~~-----------------8-------8~~~~~~-----------------8-------|
F-x-----------------------x-------x-----------------------x-------|
C-5~~~~~~-0---0---0---0---5---0---5~~~~~~-0---0---0---0---5---0---|
G---------0---0---0---0-------0-----------0---0---0---0-------0---|
C---------0---0---0---0-------0-----------0---0---0---0-------0---|
pm        .   .   .   .       .           .   .   .   .       .


==================================================================

Guitar 1
D-----------------------------------------------------------------|
A-6~~~~~~-----------------6-------6~~~~~~-----------------6-------|
F-x-----------------------x-------x-----------------------x-------|
C-3~~~~~~-0---0---0---0---3---0---3~~~~~~-0---0---0---0---3---0---|
G---------0---0---0---0-------0-----------0---0---0---0-------0---|
C---------0---0---0---0-------0-----------0---0---0---0-------0---|
pm        .   .   .   .       .           .   .   .   .       .

Guitar 2
D-----------------------------------------------------------------|
A-10~~~~~-----------------10------10~~~~~-----------------10------|
F-x-----------------------x-------x-----------------------x-------|
C-7~~~~~~-0---0---0---0---7---0---7~~~~~~-0---0---0---0---7---0---|
G---------0---0---0---0-------0-----------0---0---0---0-------0---|
C---------0---0---0---0-------0-----------0---0---0---0-------0---|
pm        .   .   .   .       .           .   .   .   .       .

==================================================================

Guitar 1
D-----------------------------------------------------------------|
A-5~~~~~~-----------------5-------5~~~~~~-----------------5-------|
F-x-----------------------x-------x-----------------------x-------|
C-2~~~~~~-0---0---0---0---2---0---2~~~~~~-0---0---0---0---2---0---|
G---------0---0---0---0-------0-----------0---0---0---0-------0---|
C---------0---0---0---0-------0-----------0---0---0---0-------0---|
pm        .   .   .   .       .           .   .   .   .       .

Guitar 2
D-----------------------------------------------------------------|
A-8~~~~~~-----------------8-------8~~~~~~-----------------8-------|
F-x-----------------------x-------x-----------------------x-------|
C-5~~~~~~-0---0---0---0---5---0---5~~~~~~-0---0---0---0---5---0---|
G---------0---0---0---0-------0-----------0---0---0---0-------0---|
C---------0---0---0---0-------0-----------0---0---0---0-------0---|
pm        .   .   .   .       .           .   .   .   .       .

==================================================================

Guitar 1
D-----------------------------------------------------------------|
A-6~~~~~~-----------------6-------6~~~~~~-----------------6-------|
F-x-----------------------x-------x-----------------------x-------|
C-3~~~~~~-0---0---0---0---3---0---3~~~~~~-0---0---0---0---3---0---|
G---------0---0---0---0-------0-----------0---0---0---0-------0---|
C---------0---0---0---0-------0-----------0---0---0---0-------0---|
pm        .   .   .   .       .           .   .   .   .       .

Guitar 2
D-----------------------------------------------------------------|
A-10~~~~~-----------------10------10~~~~~-----------------10------|
F-x-----------------------x-------x-----------------------x-------|
C-7~~~~~~-0---0---0---0---7---0---7~~~~~~-0---0---0---0---7---0---|
G---------0---0---0---0-------0-----------0---0---0---0-------0---|
C---------0---0---0---0-------0-----------0---0---0---0-------0---|
pm        .   .   .   .       .           .   .   .   .       .

==================================================================

Guitar 1
D-----------------------------------------------------------------|
A-8~~~~~~-----------------8-------8~~~~~~\~~~---------------------|
F-x-----------------------x-------x-------------------------------|
C-5~~~~~~-0---0---0---0---5---0---5~~~~~~\~~~---------------------|
G---------0---0---0---0-------0-----------------------------------|
C---------0---0---0---0-------0-----------------------------------|
pm        .   .   .   .       .

Guitar 2
D-----------------------------------------------------------------|
A-11~~~~~-----------------11------11~~~~~\~~~---------------------|
F-x-----------------------x-------x-------------------------------|
C-8~~~~~~-0---0---0---0---8---0---8~~~~~~\~~~---------------------|
G---------0---0---0---0-------0-----------------------------------|
C---------0---0---0---0-------0-----------------------------------|
pm        .   .   .   .       .

==================================================================
==================================================================



Pre Chorus

Guitar 1 Distorted
D-----------------------------------------------------------------|
A-----------------------------------------------------------------|
F-----------------------------------------------------------------|
C-0---0---0---0---0---0---0---0---0---0---0---0---0---0---0---0---|
G-0---0---0---0---0---0---0---0---0---0---0---0---0---0---0---0---|
C-0---0---0---0---0---0---0---0---0---0---0---0---0---0---0---0---|

Guitar 2
D-----------------------------------------------------------------|
A-10----------8---10----------8---10----------8---10----------8---|
F-----7---10----------7---10----------7---10----------7---10------|
C-----------------------------------------------------------------|
G-----------------------------------------------------------------|
C-----------------------------------------------------------------|

==================================================================

Guitar 1
D-----------------------------------------------------------------|
A-----------------------------------------------------------------|
F-----------------------------------------------------------------|
C-8---8---8---8---8---8---8---8---5---5---5---5---5---5---5---5---|
G-8---8---8---8---8---8---8---8---5---5---5---5---5---5---5---5---|
C-8---8---8---8---8---8---8---8---5---5---5---5---5---5---5---5---|

Guitar 2
D-----------------------------------------------------------------|
A-11----------8---11----------8---11----------8---11----------8---|
F-----7---10----------7---10----------7---10----------7---10------|
C-----------------------------------------------------------------|
G-----------------------------------------------------------------|
C-----------------------------------------------------------------|

==================================================================

Guitar 1
D-----------------------------------------------------------------|
A-----------------------------------------------------------------|
F-----------------------------------------------------------------|
C-0---0---0---0---0---0---0---0---0---0---0---0---0---0---0---0---|
G-0---0---0---0---0---0---0---0---0---0---0---0---0---0---0---0---|
C-0---0---0---0---0---0---0---0---0---0---0---0---0---0---0---0---|

Guitar 2
D-----------------------------------------------------------------|
A-10----------8---10----------8---10----------8---10----------8---|
F-----7---10----------7---10----------7---10----------7---10------|
C-----------------------------------------------------------------|
G-----------------------------------------------------------------|
C-----------------------------------------------------------------|

==================================================================

Guitar 1
D-----------------------------------------------------------------|
A-----------------------------------------------------------------|
F-----------------------------------------------------------------|
C-8---8---8---8---8---8---8---8---5---5---5---5---5---5---5---5---|
G-8---8---8---8---8---8---8---8---5---5---5---5---5---5---5---5---|
C-8---8---8---8---8---8---8---8---5---5---5---5---5---5---5---5---|
pm                                .   .   .   .   .   .   .   .

Guitar 2
D-----------------------------------------------------------------|
A-11----------8---11----------8-----------------------------------|
F-----7---10----------7---10--------------------------------------|
C---------------------------------5---5---5---5---5---5---5---5---|
G---------------------------------5---5---5---5---5---5---5---5---|
C---------------------------------5---5---5---5---5---5---5---5---|
pm                                .   .   .   .   .   .   .   .


==================================================================
==================================================================


Chorus 1

Guitar 1 & 2
D-----------------------------------------------------------------|
A-----------------------------------------------------------------|
F-----------------------------------------------------------------|
C-0---0-------0---0-------0---0-------0---0-------0---0---0---0---|
G-0---0-------0---0-------0---0-------0---0-------0---0---0---0---|
C-0---0-------0---0-------0---0-------0---0-------0---0---0---0---|
pm.   .       .   .       .   .       .   .       .   .   .   .

==================================================================

Guitar 1
D-----------------------------------------------------------------|
A-----------------------------------------------------------------|
F-----------------------------------------------------------------|
C-8---8---8---8---8---8---8---5~~~~~~-5---5---5---5---5---5---5---|
G-8---8---8---8---8---8---8---5~~~~~~-5---5---5---5---5---5---5---|
C-8---8---8---8---8---8---8---5~~~~~~-5---5---5---5---5---5---5---|

Guitar 2
D-----------------------------------------------------------------|
A-11----------8---11----------8---11----------8---11----------8---|
F-----7---10----------7---10----------7---10----------7---10------|
C-----------------------------------------------------------------|
G-----------------------------------------------------------------|
C-----------------------------------------------------------------|

==================================================================

Guitar 1
D-----------------------------------------------------------------|
A-----------------------------------------------------------------|
F-----------------------------------------------------------------|
C-0---0-------0---0-------0---0-------0---0-------0---0---0---0---|
G-0---0-------0---0-------0---0-------0---0-------0---0---0---0---|
C-0---0-------0---0-------0---0-------0---0-------0---0---0---0---|
pm.   .       .   .       .   .       .   .       .   .   .   .

Guitar 2
D-----------------------------------------------------------------|
A-10----------8---10----------8---10----------8---10----------8---|
F-----7---10----------7---10----------7---10----------7---10------|
C-----------------------------------------------------------------|
G-----------------------------------------------------------------|
C-----------------------------------------------------------------|

==================================================================

Guitar 1
D-----------------------------------------------------------------|
A-----------------------------------------------------------------|
F-----------------------------------------------------------------|
C-8---8---8---8---8---8---8---5~~~~~~-5---5---5---5---5---5---5---|
G-8---8---8---8---8---8---8---5~~~~~~-5---5---5---5---5---5---5---|
C-8---8---8---8---8---8---8---5~~~~~~-5---5---5---5---5---5---5---|

Guitar 2
D-----------------------------------------------------------------|
A-11----------8---11----------8---11----------8---11----------8---|
F-----7---10----------7---10----------7---10----------7---10------|
C-----------------------------------------------------------------|
G-----------------------------------------------------------------|
C-----------------------------------------------------------------|

==================================================================
==================================================================


Chorus 2

Guitar 1 & 2
D-----------------------------------------------------------------|
A-----------------------------------------------------------------|
F-----------------------------------------------------------------|
C-----------------------------------------------------------------|
G-----------------------------------------------------------------|
C-----------------------------------------------------------------|

==================================================================

Guitar 1
D-----------------------------------------------------------------|
A-----------------------------------------------------------------|
F-----------------------------------------------------------------|
C-8~~~~~~-8---8---8---8---8---5~~~~~~-5-------------------5~~~~~~-|
G-8~~~~~~-8---8---8---8---8---5~~~~~~-5-------------------5~~~~~~-|
C-8~~~~~~-8---8---8---8---8---5~~~~~~-5--5-7-8-7-7-8-10-8-5~~~~~~-|
pm                                       . . . . . . .  .

Guitar 2
D-----------------------------------------------------------------|
A-11----------8---11----------8---11----------8---11----------8---|
F-----7---10----------7---10----------7---10----------7---10------|
C-----------------------------------------------------------------|
G-----------------------------------------------------------------|
C-----------------------------------------------------------------|

Guitar 1
D-----------------------------------------------------------------|
A-----------------------------------------------------------------|
F-----------------------------------------------------------------|
C-0---0-------0---0-------0---0-------0---0-------0---0---0---0---|
G-0---0-------0---0-------0---0-------0---0-------0---0---0---0---|
C-0---0-------0---0-------0---0-------0---0-------0---0---0---0---|
pm.   .       .   .       .   .       .   .       .   .   .   .

Guitar 2
D-----------------------------------------------------------------|
A-10----------8---10----------8---10----------8---10----------8---|
F-----7---10----------7---10----------7---10----------7---10------|
C-----------------------------------------------------------------|
G-----------------------------------------------------------------|
C-----------------------------------------------------------------|

==================================================================

Guitar 1
D-----------------------------------------------------------------|
A-----------------------------------------------------------------|
F-----------------------------------------------------------------|
C-8---8---8---8---8---8---8---5~~~~~~-5---5---5---5---5---5---5---|
G-8---8---8---8---8---8---8---5~~~~~~-5---5---5---5---5---5---5---|
C-8---8---8---8---8---8---8---5~~~~~~-5---5---5---5---5---5---5---|

Guitar 2
D-----------------------------------------------------------------|
A-11----------8---11----------8---11----------8---11----------8---|
F-----7---10----------7---10----------7---10----------7---10------|
C-----------------------------------------------------------------|
G-----------------------------------------------------------------|
C-----------------------------------------------------------------|

==================================================================
==================================================================


Bridge

(x2)

Guitar 1
D-----------------------------------------------------------------|
A-----------------------------------------------------------------|
F-----------------------------------------------------------------|
C-0---0---0---0---0---0---0---0---0---0---0---0---0---0---0---0---|
G-0---0---0---0---0---0---0---0---0---0---0---0---0---0---0---0---|
C-0---0---0---0---0---0---0---0---0---0---0---0---0---0---0---0---|

Guitar 2
D-----------------------------------------------------------------|
A-10----------8---10----------8---10----------8---10----------8---|
F-----7---10----------7---10----------7---10----------7---10------|
C-----------------------------------------------------------------|
G-----------------------------------------------------------------|
C-----------------------------------------------------------------|

==================================================================

Guitar 1
D-----------------------------------------------------------------|
A-----------------------------------------------------------------|
F-----------------------------------------------------------------|
C-8---8---8---8---8---8---8---8---5---5---5---5---5---5---5---5---|
G-8---8---8---8---8---8---8---8---5---5---5---5---5---5---5---5---|
C-8---8---8---8---8---8---8---8---5---5---5---5---5---5---5---5---|

Guitar 2
D-----------------------------------------------------------------|
A-11----------8---11----------8---11----------8---11----------8---|
F-----7---10----------7---10----------7---10----------7---10------|
C-----------------------------------------------------------------|
G-----------------------------------------------------------------|
C-----------------------------------------------------------------|

==================================================================

Guitar 1 & 2
D-----------------------------------------------------------------|
A-----------------------------------------------------------------|
F-----------------------------------------------------------------|
C-0---0-------0---0-------0---0-------0---0-----------------------|
G-0---0-------0---0-------0---0-------0---0-----------------------|
C-0---0-------0---0-------0---0-------0---0-----------------------|
pm.   .       .   .       .   .       .   .

==================================================================
==================================================================
==================================================================

Tab Legend
h  -  hammer-on
p  -  pull-off
/  -  slide up
\  -  slide down
ps/-  pickslide up
ps\-  pickslide down
~  -  let ring
pm.-  palm mute
b  -  bend
r  -  return from bend
*  -  harmonic
x  -  dead note
^  -  Whammy bar
^\ -  Whammy bar (hold down)

That's all of it. I hope it was useful, and if you've got any problems, you can check
out my cover, or ask me. Thanks, oh and one last thing... ROCK OUT!!!!
Добавлено: 23.04.2012
Другие материалы по этой песне:

Страница создана 23.04.2012
http://primanota.ru/evans-blue/this-time-its-different-chords.htm
Привет, Гость.
Предлагаем пройти революционный курс по гитаре.
Подарок от PrimaNota.Ru, забирай!