PrimaNota.ru - самый крупный в мире бесплатный архив песенных текстов, аккордов, табулатур и нот


Evans Blue - Quote - аккорды и текст, таба, видео

Регистрация Запомнить меня
Войти через:  Facebook Google Twitter Vk Yandex Mail.ru

Evans Blue - Quote - аккорды и текст, таба, видео

Печатать
Просмотров: 539
Уроки эстрадного вокала в Санкт-Петербурге
Quote
Evans Blue
Standard Tuning Dropped half step

intro:
eb|-----------------------------------------------------------------------------------5-0---3-2-0---|
Bb|-------------3-------------------3---------------------3------------------3-3---2------3-------0-|
Gb|--------4-------4-4~--------4-------4-4~-----------4------4-4~---------4------4------------------|
Db|-----4-------------------4----------------------4-------------------4----------------------------|
Ab|--2-------------------0------------------------------------------2-------------------------------|
Eb|--------------------------------------------3----------------------------------------------------|

     this x2
eb|-----------------------------------------------------------------------------------5-0---3-2-0---|
Bb|-------------3-------------------3---------------------3------------------3-3---2------3-------0-|
Gb|--------4-------4-4~--------4-------4-4~-----------4------4-4~---------4------4------------------|
Db|-----4-------------------4----------------------4-------------------4----------------------------|
Ab|--2-------------------0------------------------------------------2-------------------------------|
eb|---------------------------------------------3---------------------------------------------------|

Bm                D      Dsus2       Asus4        A
Is this how you wanna go down, right before my eyes
             Esus4   Em7
You're the saddest sight i know
Bm               D            Dsus2
You're quiet you never make a sound
          Asus4     A                Esus4  Em7
But here inside my mind you are the loudest one I know

    this x3
eb|-----------------------------------------------------------------------------------5-0---3-2-0---|
Bb|-------------3-------------------3---------------------3------------------3-3---2------3-------0-|
Gb|--------4-------4-4~--------4-------4-4~-----------4------4-4~---------4------4------------------|
Db|-----4-------------------4----------------------4-------------------4----------------------------|
Ab|--2-------------------0------------------------------------------2-------------------------------|
Eb|--------------------------------------------3----------------------------------------------------|


Bm                D       Dsus2
Is this how you wanna go down
   Asus4         A                 Esus4   Em7
Right before my eyes, you are the saddest sight, I know
Bm                   D            Dsus2
And you're quiet you never make a sound,
         Asus4      A                Esus4  Em7
but here inside my mind you are the loudest one I know


(Barre chords in heavy distortion)

Bm                  D              Dsus2
And you were right, right from the start
         Asus4           A            Esus4   Em7
It took everything you had, but you finally broke my...


solo
eb|-11-11-11-11-11-11-11-11-11--------|
Bb|-11-11-11-11-11-11-11-11-11--------|
Gb|-----------------------------------|
Db|-----------------------------------|
Ab|-----------------------------------|
Eb|-----------------------------------|


repeat x4
eb|-15--15--p11--11--11--11-11-11-11--|
Bb|-15--15--p11--11--11--11-11-11-11--|
Gb|-----------------------------------|
Db|-----------------------------------|
Ab|-----------------------------------|
Eb|-----------------------------------|


F#m                          A
And know the old flames will pass away
           Bm
I saw your life once
    G
Did you see mine
        F#m             A
But not all things will pass away
                Bm
You turned your light off
   G              F#m            G         F#m       
   G
So I turned mine, away from your saddness, away from the nothingness you feel for me

Bm              D        Dsus2
Is this how you wanna go down
   Asus4        A                  Esus4   Em7
Right before my eyes, you are the saddest sight, I know
Bm                      D            Dsus2
You're so quiet and you never make a sound
         Asus4     A                 Esus4  Em7
But here inside my mind you are the loudest one, I know

Bm                  D              Dsus2
And you were right, right from the start,
        Asus4          A             Esus4  Em7
it took everything you had, but you finally broke my ...

eb|-----------------------------------------------------------------------------------5-0---3-2-0---|
Bb|-------------3-------------------3---------------------3------------------3-3---2------3-------0-|
Gb|--------4-------4-4~--------4-------4-4~-----------4------4-4~---------4------4------------------|
Db|-----4-------------------4----------------------4-------------------4----------------------------|
Ab|--2-------------------0------------------------------------------2-------------------------------|
Eb|--------------------------------------------3----------------------------------------------------|


not too sure about some parts so listen to the song as you play.
Добавлено: 22.04.2012
Другие материалы по этой песне:
  • Аккорды и текст

Страница создана 12.04.2012
http://primanota.ru/evans-blue/quote-chords.htm
Привет, Гость.
Предлагаем пройти революционный курс по гитаре.
Подарок от PrimaNota.Ru, забирай!