PrimaNota.ru - самый крупный в мире бесплатный архив песенных текстов, аккордов, табулатур и нот


Evans Blue - Erase My Scars - текст песни, таба, видео

Регистрация Запомнить меня
Войти через:  Facebook Google Twitter Vk Yandex Mail.ru

Evans Blue - Erase My Scars - текст песни, таба, видео

Печатать
Просмотров: 622
Уроки эстрадного вокала в Санкт-Петербурге
Now, there's finally a tab up for this song.
I based it on a sorta-crappy video tutorial by one of the guitarists from the band.
It's as close to correct as I can get. Let me know if it needs changes!

Intro/Verse : 4x (distorted)
D|-----------------------------------------------------------------|
A|-----------------------------------------------------------------|
F|-----------------------------------------------------------------|
C|-----3-----3----------5-----5----------7-----7-----8-----7-----5-|
G|-0-1---0-1---0-1--0-3---0-3---0-3--0-5---0-5---0-5---0-5---0-5---|
C|-----------------------------------------------------------------|

Chorus : 2x
D|---------------------------------------------|
A|---------------------------------------------|
F|----101010----12-12-12-----9-9-9-----1010-9--|
C|-0--8-8-8--0--10-10-10--0--7-7-7--0--8-8-7---|
G|-0--8-8-8--0--10-10-10--0--7-7-7--0--8-8-7---|
C|-0--x-x-x--0--x--x--x---0--x-x-x--0--xx-x----|

D|---strum-each-4-times-----------------|-----|
A|--------------------------------------|-----|
F|-8--10--9--9----------10--12--10--10--|-----|
C|-8--8---8--10--0------10--10--12--14--|--0~-|
G|-8--8---8--8---0(1x)--10--10--10--10--|--0~-|
C|-8--8---8--8---0------10--10--10--10--|--0~-|

Verse 2 : 1x
D|-------------------------------------------------------------------|
A|-------------------------------------------------------------------|
F|-------------------------------------------------------------------|
C|--8-8-8-8--8-8-8-8--8-10-10-10--10--10-10---0-0--0--0-0-0-0-0--10--|
G|--8-8-8-8--8-8-8-8--8-10-10-10--10--10-10---0-0--0--0-0-0-0-0--10--|
C|--8-8-8-8--8-8-8-8--8-10-10-10--10--10-10---0-0--0--0-0-0-0-0--10--|

D|-------------------------------------------------------------------|
A|-------------------------------------------------------------------|
F|-------------------------------------------------------------------|
C|--8-8-8--8--8-8-10-10-10--10--10-10-10--0-0--0--0-0-0-0-0--0--10~--|
G|--8-8-8--8--8-8-10-10-10--10--10-10-10--0-0--0--0-0-0-0-0--0--10~--|
C|--8-8-8--8--8-8-10-10-10--10--10-10-10--0-0--0--0-0-0-0-0--0--10~--|

Second Pre-Chorus : 1x
D|----------------------------------------------------------------------------------|
A|----------------------------------------------------------------------------------|
F|----------------------------------------------------------------------------------|
C|-----3-----3-----3-----3-----3(hold)------5-----5-----5-----5-----5(hold)---0-0-0-|
G|-0-1---0-1---0-1---0-1---0-1----------0-3---0-3---0-3---0-3---0-3-----------0-0-0-|
C|----------------------------------------------------------------------------0-0-0-|

Chorus :

Bridge 2x : 2x
D|------------------------------------------------------------------------------------|
A|------------------------------------------------------------------------------------|
F|------------------------------------------------------------------------------------|
C|------------------------------------------------------------------------------------|
G|------------------------------------------------------------------------------------|
C|-0-0-0000-12-8--00-10-7--00-8-7--00-3-5-3---0-0-0000-12-8--00-10-7--00-8-7--00-3-5--|

Vocal Bridge :
D|------------------------------------------------|-------------------------------|
A|--strum-each-4-times----------------------------|-------------------------------|
F|-8--10-9---10-9--10----------8--10-9-----10-----|-------------------------------|
C|-8--8--10--0--0--9---0-------8--8--10----10-----|-------------------------------|
G|-8--8--8---0--0--0---0(1x)---8--8--8--0--10(8x)-|-0-10-8-10-8-7-----------------|
C|-8--8--8---0--0--0---0-------8--8--8--0--10-----|-0-10-8-10-8-7-----------------|
                                                                              PM--|
Chorus :

Outro : 2x
D|------------------------------------------------------------| D|------|
A|------------------------------------------------------------| A|------|
F|------------------------------------------------------------| F|------|
C|------------------------------------------------------------| C|-00-0-|
G|-0-0-0--12-8--10-7--8-7--3-5-1--0-0-0--12-8--10-7--8-7--3-5-| G|-00-0-|
C|-0-0-0--12-8--10-7--8-7--3-5-1--0-0-0--12-8--10-7--8-7--3-5-| C|-00-0-|
                                                                        

End Verse : 3x
D|-----------------------------------------------------------------|
A|-----------------------------------------------------------------|
F|-----------------------------------------------------------------|
C|-----3-----3----------5-----5----------7-----7-----8-----7-----5-|
G|-0-1---0-1---0-1--0-3---0-3---0-3--0-5---0-5---0-5---0-5---0-5---|
C|-----------------------------------------------------------------|
Добавлено: 08.07.2012
Другие материалы по этой песне:

Страница создана 07.03.2012
http://primanota.ru/evans-blue/erase-my-scars-chords.htm
Привет, Гость.
Предлагаем пройти революционный курс по гитаре.
Подарок от PrimaNota.Ru, забирай!