PrimaNota.ru - самый крупный в мире бесплатный архив песенных текстов, аккордов, табулатур и нот


Evans Blue - Over - текст песни, таба, видео

Регистрация Запомнить меня
Войти через:  Facebook Google Twitter Vk Yandex Mail.ru

Evans Blue - Over - текст песни, таба, видео

Печатать
Просмотров: 806
Уроки эстрадного вокала в Санкт-Петербурге
-------------------------------------------------------------------------------
                             Over – Evans Blue
-------------------------------------------------------------------------------
Tabbed by: the wake behind you
Email: thewakebehindyou@excite.com

Tuning: Standard

Guitar I |0:00 – 0:27| 4x
e|------------------------------|
B|------------------------------|
G|------------------------------|
D|----------6---------6-4-7p6---|
A|---4-4-2h4---4-4-2h4----------|
E|------------------------------|

Guitar I |0:27 – 0:33| 2x
e|-------------------------------------|
B|----4h5p4—--4h5p4—--4h5p4-7-5p4------|
G|---------4-------4-------------4-----|
D|-------------------------------------|
A|-------------------------------------|
E|-------------------------------------|

Guitar I |0:33 – 0:40| 8x        8th Time Only
e|----------------------------------------------|
B|---4h5p4-----------------------4h5p4-7-5p4----|
G|--------4---------------------------------4---|
D|----------------------------------------------|
A|----------------------------------------------|
E|----------------------------------------------|

Guitar I |0:40 – 0:53| 4x                                 4th Time Only
e|------4--------------------------------------------------------------------|
B|-4h5p4-5p4-7-5p4-2—--------------------------4h5p4-7-5p4-5p4h5p4-7-5p4-----|
G|---------------------------------------------------------------------------|
D|---------------------------------------------------------------------------|
A|---------------------------------------------------------------------------|
E|---------------------------------------------------------------------------|

Guitar I Chorus |0:53 – 1:12| 2x
e|----------------------------------x2-------------------------------------x2|
B|---5p4-5p4-5p4----5p4--7-5p4--------|--------5p4-5p4-5p4---5p4-7-5p4-------|
G|--------------4-2----4------4-------|-------------------4-6---4-----4------|
D|---------------------------------------------------------------------------|
A|---------------------------------------------------------------------------|
E|---------------------------------------------------------------------------|

Guitar II Bridge |2:36 – 2:43| 2x
e|---------------------------------------------------------------------------|
B|---------------------------------------------------------------------------|
G|---------------------------------------------------------------------------|
D|---666/--888/--999/--11-11-11/--13-13/--16-16------------------------------|
A|---444/--666/--777/---9--9--9/--11-11/--14-14------------------------------|
E|---444/--666/--777/---9--9—-9/--11-11/--14-14------------------------------|
| /  slide up
| \  slide down
| h  hammer-on
| p  pull-off
| ~  vibrato
| +  harmonic
| x  Mute note
===============================================================================

Добавлено: 15.05.2012
Другие материалы по этой песне:
  • Аккорды и текст

Страница создана 05.05.2012
http://primanota.ru/evans-blue/over-chords.htm
Привет, Гость.
Предлагаем пройти революционный курс по гитаре.
Подарок от PrimaNota.Ru, забирай!