PrimaNota.ru - самый крупный в мире бесплатный архив песенных текстов, аккордов, табулатур и нот


Evans Blue - Destroy The Obvious - текст песни, таба, видео

Регистрация Запомнить меня
Войти через:  Facebook Google Twitter Vk Yandex Mail.ru

Evans Blue - Destroy The Obvious - текст песни, таба, видео

Печатать
Просмотров: 207
Evans Blue: Destroy The Obvious

Transcribed by: mysticguitar77

YouTube Username: MysticGuitar77

Date last modified: January 21, 2013

Tuning: Drop A (A,E,A,D,G,B,E)

***I play it on a 7-string, you can easily play it on a 6-string as well
   except the tuning would be (A,E,A,D,F#,B)***

Riff 1   (w/ modulation effect)
E|----------------------------------------------|
B|----------------------------------------------|
G|----------------------------------------------|
D|-7-7---7---9-9---9---10-10---10---12-12---14\-|
A|-x-x---x---x-x---x---x--x----x----x--x----x---|
E|-5-5-x-5-x-7-7-x-7-x-8--8--x-8--x-10-10-x-12\-|
A|-----x---x-----x---x-------x----x-------x-----|
                                    ^ ends here final time through

Play Riff 1 x4

Riff 2
E|----------------------------------------------|
B|----------------------------------------------|
G|----------------------------------------------|
D|----------------------------------------------|
A|-0--0-1-0--0--0-1-0--0--0-1-0-----------------|
E|-0--0-1-0--0--0-1-0--0--0-1-0-----------------|
A|-0--0-1-0--0--0-1-0--0--0-1-0-3-2-0-3-2-0-3-2-|

E|------------------------------------------|
B|------------------------------------------|
G|------------------------------------------|
D|------------------------------------------|
A|-0--0-1-0--0--0-1-0--0--0-1-0-2---3---3/5-|
E|-0--0-1-0--0--0-1-0--0--0-1-0-2-0-3-0-3/5-|
A|-0--0-1-0--0--0-1-0--0--0-1-0-2-0-3-0-3/5-|
                                  *   *

Riff 3
E|------------------------------------------------------------|
B|------------------------------------------------------------|
G|------------------------------------------------------------|
D|----------2~-----------2~-3-2----------2~--3-----3----2-----|
A|------0h3----------0h3-------------0h3---------3---2------3-|
E|-0--0---------0--0------------0--0-----------1-----0----0-3-|
A|-0--0---------0--0------------0--0----------------------0-3-|
   *  *         *  *            *  *                      *

Play Riff 3 x3   "It doesn't take much to see..."

Riff 4   "No heart, no soul, take my hand, or let go!"
E|-------------------------------------------------|
B|-------------------------------------------------|
G|-------------------------------------------------|
D|-3-3-3-3-3-3-3-3-3-3-3-3-3-3-3-2-2-2-2-2-2-2-2-2-|
A|-3-3-3-3-3-3-3-3-3-3-3-3-3-3-3-2-2-2-2-2-2-2-2-2-|
E|-1-1-1-1-1-1-1-1-1-1-1-1-1-1-1-0-0-0-0-0-0-0-0-0-|
A|-------------------------------------------------|
   * * * * * * * * * * * * * * * * * * *

Riff 5   "I'm left no choice we live in a black hole..."
E|----------------------------------------------|
B|----------------------------------------------|
G|----------------------------------------------|
D|-7-7---7---9-9---9---10-10---10---12-12---14\-|
A|-x-x---x---x-x---x---x--x----x----x--x----x---|
E|-5-5-x-5-x-7-7-x-7-x-8--8--x-8--x-10-10-x-12\-|
A|-----x---x-----x---x-------x----x-------x-----|

E|--------------------------------------------|
B|--------------------------------------------|
G|--------------------------------------------|
D|-10-10-10-10--10-10-12-12-12-12-------------|
A|-8--8--8--8---8--8--10-10-10-10-------------|
E|-8--8--8--8---8--8--10-10-10-10-------------|
A|-8--8--8--8---8--8--10-10-10-10-12-10-0-7-8-|

Play Riff 5 x2   "So let go, destroy the obvious..."
Play Riff 3 x3   "It's a good thing you can live beneath..."
Play Riff 4 x1   "...where the dark won't show..."
Play Riff 5 x2   "I'm left no choice we live in a black hole..."
Play Riff 2 x1

Riff 6   "I know you're holding on to me..."
E|--------------------------------------------|
B|--------------------------------------------|
G|--------------------------------------------|
D|--------------------------------------------|
A|-5-5---5---7-7---7---8-8---8---10-10---10---|
E|-5-5-x-5-x-7-7-x-7-x-8-8-x-8-x-10-10-x-10-x-|
A|-5-5-x-5-x-7-7-x-7-x-8-8-x-8-x-10-10-x-10-x-|

E|-------------------------------------------------------|
B|-------------------------------------------------------|
G|-------------------------------------------------------|
D|-------------------------------------------------------|
A|-5-5---5---7-7---7---8-8---8---10-10-10-10-10-10-10-10-|
E|-5-5-x-5-x-7-7-x-7-x-8-8-x-8-x-10-10-10-10-10-10-10-10-|
A|-5-5-x-5-x-7-7-x-7-x-8-8-x-8-x-10-10-10-10-10-10-10-10-|

E|----------------------------------------------|
B|----------------------------------------------|
G|----------------------------------------------|
D|----------------------------------------------|
A|-5---------7---------8---------10----10-10-10-|
E|-5---------7---------8---------10----10-10-10-|
A|-5---------7---------8---------10----10-10-10-|

E|-------------------------------------------------------|
B|-------------------------------------------------------|
G|-------------------------------------------------------|
D|-------------------------------------------------------|
A|-5-5---5---7-7---7---8-8---8---10-10-10-10-10-10-10-10-|
E|-5-5-x-5-x-7-7-x-7-x-8-8-x-8-x-10-10-10-10-10-10-10-10-|
A|-5-5-x-5-x-7-7-x-7-x-8-8-x-8-x-10-10-10-10-10-10-10-10-|

Play Riff 1 x4   "I know you're holding on to me..."
Play Riff 5 x2   "I'm left no choice we live in a black hole..."

Riff 7 (ending)
E|----------------------------------------------|
B|----------------------------------------------|
G|----------------------------------------------|
D|----------------------------------------------|
A|-0--0-1-0--0--0-1-0--0--0-1-0-----------------|
E|-0--0-1-0--0--0-1-0--0--0-1-0-----------------|
A|-0--0-1-0--0--0-1-0--0--0-1-0-3-2-0-3-2-0-3-2-|

E|----------------------------------------|
B|----------------------------------------|
G|----------------------------------------|
D|----------------------------------------|
A|-0--1-0--0--1-0--0--1-0--2---3---3/5-0~-|
E|-0--1-0--0--1-0--0--1-0--2-0-3-0-3/5-0~-|
A|-0--1-0--0--1-0--0--1-0--2-0-3-0-3/5-0~-|
                             *   *

Enjoy!!
Добавлено: 07.06.2013
Другие материалы по этой песне:
  • Аккорды и текст

Страница создана 07.06.2013
http://primanota.ru/evans-blue/destroy-the-obvious-chords.htm
Привет, Гость.
Предлагаем пройти революционный курс по гитаре.
Подарок от PrimaNota.Ru, забирай!