PrimaNota.ru - самый крупный в мире бесплатный архив песенных текстов, аккордов, табулатур и нот


Evans Blue - Sick Of It - текст песни, таба, бас-таба, видео

Регистрация Запомнить меня
Войти через:  Facebook Google Twitter Vk Yandex Mail.ru

Evans Blue - Sick Of It - текст песни, таба, бас-таба, видео

Печатать
Просмотров: 246
The intro is played on bass

VERSE:
D|----------------------------------|
A|----------------------------------|
F|----------------------------------|
C|----------------------------------|
G|----------------------------------|
C|-0-0-12-12-0-0-12-0-0-0-0-2-2-3-3-|

D|----------------------------------|
A|----------------------------------|
F|----------------------------------|
C|----------------------------------|
G|----------------------------------|
C|-0-0-12-12-0-0-12-0-0-0-0-8-8-8-8-|

D|----------------------------------|
A|----------------------------------|
F|----------------------------------|
C|----------------------------------|
G|----------------------------------|
C|-0-0-12-12-0-0-12-0-0-0-0-2-2-3-3-|

D|----------------------------------|
A|----------------------------------|
F|----------------------------------|
C|----------------------------------|
G|----------------------------------|
C|-5-5-5-5-5-5-5-5-8-8-8-8-8-8-8-8--|

CHORUS:
D|-------------------------------------------|
A|-------------------------------------------|
F|-------------------------------------------|
C|--0----12----8----5----0----12----8----10--|
G|--0----12----8----5----0----12----8----10--|
C|--0----12----8----5----0----12----8----10--|

D|---------------------------------------------|
A|---------------------------------------------|
F|---------------------------------------------|
C|--0----12----8----5----3-3-3-3-2--2-2-0-2-3--|
G|--0----12----8----5----3-3-3-3-2--2-2-0-2-3--|
C|--0----12----8----5----3-3-3-3-2--2-2-0-2-3--|

POST-CHORUS
D|--------------------------|
A|--------------------------|
F|--------------------------|
C|--12---0---12---0---0h10--|
G|--12---0---12---0---0h10--|
C|--12---0---12---0---0h10--|

BRIDGE:
D|-----------------------------------|
A|-----------------------------------|
F|-----------------------------------|
C|-----------------------------------|
G|----5---5---5---5---5---5---5---5--|
C|--0---0---0---0---0---0---0---0----|

D|-----------------------------------|
A|-----------------------------------|
F|-----------------------------------|
C|-----------------------------------|
G|----7---7---7---7---7---7---7---7--|
C|--5---5---5---5---5---5---5---5----|

D|-----------------------------------|
A|-----------------------------------|
F|-----------------------------------|
C|----3---3---3---3---3---3---3---3--|
G|--1---1---1---1---1---1---1---1----|
C|-----------------------------------|

D|-----------------------------------|
A|-----------------------------------|
F|-----------------------------------|
C|----5---5---5---5---3---3---2---2--|
G|--3---3---3---3---1---1---0---0----|
C|-----------------------------------|

D|--------------------------|
A|--------------------------|
F|--------------------------|
C|--1010----1010----12/0----|
G|--1010----1010----12/0----|
C|--1010----1010----12/0----|
     ^--10's--^

OUTRO:
D|---------------------------------------------------------|
A|---------------------------------------------------------|
F|---------------------------------------------------------|
C|--12---0---12---0---0h10---12---0---12-------------------|
G|--12---0---12---0---0h10---12---0---12-------------------|
C|--12---0---12---0---0h10---12---0---12--0-12-0-15-12-10--|
Добавлено: 24.07.2015
Вам также может быть интересно:
Другие материалы по этой песне:
  • Аккорды и текст

Страница создана 13.01.2014
http://primanota.ru/evans-blue/sick-of-it-chords.htm
Привет, Гость.
Предлагаем пройти революционный курс по гитаре.
Подарок от PrimaNota.Ru, забирай!