PrimaNota.ru - самый крупный в мире бесплатный архив песенных текстов, аккордов, табулатур и нот


Evans Blue - Evans Blue (album) - таба, видео

Регистрация Запомнить меня
Войти через:  Facebook Google Twitter Vk Yandex Mail.ru

Evans Blue - Evans Blue (album) - таба, видео

Печатать
Просмотров: 93
EVANS BLUE: SELF-TITLED FULL ALUBM TAB

All songs are in Drop C

/ = Slide
x = Mute/Dead Note
. = Palm Mute
~ = Ring out
h = Hammer-on
p = Pull-off
b = Bend
* = Harmonic

Lead Guitar track is above the Rythm Guitar Track. If there is only one it can be played 
on either or both.
For some songs, I couldn't figure out the lead parts.

Update (3/21/15): Changes are still being made. I change something each time I look over it.
If you think something is incorrect, please let me know.

================================================================================================================

1. BURIED ALIVE

INTRO/VERSE:
D|-------------------------------------------------------------------------------------------|
A|-------------------------------------------------------------------------------------------|
F|-------------------------------------------------------------------------------------------|
C|--12-12-12-12--14--15---12-12-12-12--14--15---10-10-10-10--14--15---10-10-10-10--14--15----|
G|-------------------------------------------------------------------------------------------|
C|-------------------------------------------------------------------------------------------|

D|-------------------------------------------------------------------------------------------|
A|-------------------------------------------------------------------------------------------|
F|-------------------------------------------------------------------------------------------|
C|--0-0-0-0----0-0-0--0-0-0-0-0-0----0-0-0--0-0-8-8-8-8----8-8-8--8-8-8-8-8-8----8-7-8-10----|
G|--0-0-0-0----0-0-0--0-0-0-0-0-0----0-0-0--0-0-8-8-8-8----8-8-8--8-8-8-8-8-8----8-7-8-10----|
C|--0-0-0-0----0-0-0--0-0-0-0-0-0----0-0-0--0-0-8-8-8-8----8-8-8--8-8-8-8-8-8----8-7-8-10----|
    . . . .    . . .  . . . . . .    . . .  . . . . . .    . . .  . . . . . .

Rythm starts after playing the lead once

D|-----------------|
A|-----------------|
F|-----------------|
C|--x-x-8----10----|
G|--x-x-8----10----|
C|--x-x-8----10----|

This is played at the end of the verse as opposed to that 8-7-8-10 chord progression


PRECHORUS:
D|------------------------------------------------------|
A|------------------------------------------------------|
F|-----10~-------10~-------12~---------12~--------------|
C|-----x---------x---------x-----------x----------------|
G|-----8~~-------8~~-------10~---------10~--------------|
C|------------------------------------------------------|

D|---------------------------------------------------|
A|---------------------------------------------------|
F|---------------10~-------------------12~-----------|
C|--8~-----8-x-x-8~-----10~-----10-x-x-10~-----3--2--|
G|--8~-----8-x-x-8~-----10~-----10-x-x-10~-----3--2--|
C|--8~-----8-x-x-8~-----10~-----10-x-x-10~-----3--2--|

CHORUS:
D|-------------------------------------------------------------------------------|
A|-------------------------------------------------------------------------------|
F|--9--10-12--14--15~------------------------------------------------------------|
C|--x--x--x---x---x---8~----------------3~----------------5~--x-x--------3-------|
G|--7--8--10--12--13~-8~----------------3~----------------5~--x-x----3-5---5-3-5-|
C|--------------------8~----------------3~----------------5~--x-x----------------|

D|-------------------------------------------------------------------------------|
A|-------------------------------------------------------------------------------|
F|-------------------------------------------------------------------------------|
C|--0~----------------8~----------------3~----------------5~--x-x--5~------------|
G|--0~----------------8~----------------3~----------------5~--x-x--5~------------|
C|--0~----------------8~----------------3~----------------5~--x-x--5~------------|

The Chorus is played twice.
The lead riff (which I'm not sure is completely accurate) is only played on the first time.

POST-CHORUS:
D|--------------------------------|
A|--------------------------------|
F|--------------------------------|
C|--0~-------------8~-------------|
G|--0~-------------8~-------------|
C|--0~-------------8~-------------|

The lead guitar from the intro is played during this.

BRIDGE:
D|------------------------------------------|
A|------------------------------------------|
F|--10-10-10-10--x-10-10-10-10--x-10/12-12--|
C|--10-10-10-10--x-10-10-10-10--x-10/12-12--|
G|--8--8--8--8---x-8--8--8--8---x--8/10-10--|
C|--8--8--8--8---x-8--8--8--8---x--8/10-10--|

D|---------------------------------------------|
A|---------------------------------------------|
F|--10-10-10-10--x-10-10-10-10--x--------------|
C|--10-10-10-10--x-10-10-10-10--x--------------|
G|--8--8--8--8---x-8--8--8--8---x--------------|
C|--8--8--8--8---x-8--8--8--8---x-0-10-12-10-0-|

This is played on both guitars until the solo.
The top track is not the lead guitar exclusively, but it's the first measure of the brige.
I do not have enough experience or skill to learn the solo. If someone else can do it, feel free to.

The rythm guitar plays the chorus chords during the solo in the first measure.
D|------------------------------------------------------------------------------|
A|------------------------------------------------------------------------------|
F|------------------------------------------------------------------------------|
C|--0~----------------8~----------------3-3-3-3-3-3-3-3-0~--x-x-5-------3-------|
G|--0~----------------8~----------------3-3-3-3-3-3-3-3-0~--x-x-5---3-5---5-3-5-|
C|--0~----------------8~----------------3-3-3-3-3-3-3-3-0~--x-x-5---------------|
                                        . . . . . . . .

OUTRO:
D|-------------------------------------------------------------------------------------------|
A|-------------------------------------------------------------------------------------------|
F|-------------------------------------------------------------------------------------------|
C|--0-0-0-0----0-0-0--0-0-0-0-0-0----0-0-0--0-0-0-0-0-0----0-0-0--0-0-0-0-0-0-0----0-0-0-----|
G|--0-0-0-0----0-0-0--0-0-0-0-0-0----0-0-0--0-0-0-0-0-0----0-0-0--0-0-0-0-0-0-0----0-0-0-----|
C|--0-0-0-0----0-0-0--0-0-0-0-0-0----0-0-0--0-0-0-0-0-0----0-0-0--0-0-0-0-0-0-0----0-0-0-----|
    . . . .    . . .  . . . . . .    . . .  . . . . . .    . . .  . . . . . . .    . . .

================================================================================================================

2. SICK OF IT

The intro is played on bass
In this song, both guitars play the same thing. It can be played on a single guitar.

VERSE:
D|-----------------------------------------|
A|-----------------------------------------|
F|-----------------------------------------|
C|-----------------------------------------|
G|-----------------------------------------|
C|-0-0-12-12-12-12-0-0-12-12-12-12-2-2-3-3-|

D|-----------------------------------------|
A|-----------------------------------------|
F|-----------------------------------------|
C|-----------------------------------------|
G|-----------------------------------------|
C|-0-0-12-12-12-12-0-0-12-12-12-12-8-8-8-8-|

D|-----------------------------------------|
A|-----------------------------------------|
F|-----------------------------------------|
C|-----------------------------------------|
G|-----------------------------------------|
C|-0-0-12-12-12-12-0-0-12-12-12-12-2-2-3-3-|

D|----------------------------------|
A|----------------------------------|
F|----------------------------------|
C|----------------------------------|
G|----------------------------------|
C|-5-5-5-5-5-5-5-5-8-8-8-8-8-8-8-8--|

CHORUS:
D|-------------------------------------------|
A|-------------------------------------------|
F|-------------------------------------------|
C|--0----12----8----5----0----12----8----10--|
G|--0----12----8----5----0----12----8----10--|
C|--0----12----8----5----0----12----8----10--|

D|---------------------------------------------|
A|---------------------------------------------|
F|---------------------------------------------|
C|--0----12----8----5----3-3-3-3-2--2-2-0-2-3--|
G|--0----12----8----5----3-3-3-3-2--2-2-0-2-3--|
C|--0----12----8----5----3-3-3-3-2--2-2-0-2-3--|

POST-CHORUS
D|--------------------------|
A|--------------------------|
F|--------------------------|
C|--12---0---12---0---0h10--|
G|--12---0---12---0---0h10--|
C|--12---0---12---0---0h10--|

BRIDGE:
D|-----------------------------------|
A|-----------------------------------|
F|-----------------------------------|
C|-----------------------------------|
G|----5---5---5---5---5---5---5---5--|
C|--0---0---0---0---0---0---0---0----|
    . . . . . . . . . . . . . . . .

D|-----------------------------------|
A|-----------------------------------|
F|-----------------------------------|
C|-----------------------------------|
G|----7---7---7---7---7---7---7---7--|
C|--5---5---5---5---5---5---5---5----|
    . . . . . . . . . . . . . . . .

D|-----------------------------------|
A|-----------------------------------|
F|-----------------------------------|
C|----3---3---3---3---3---3---3---3--|
G|--1---1---1---1---1---1---1---1----|
C|-----------------------------------|
    . . . . . . . . . . . . . . . .

D|-----------------------------------|
A|-----------------------------------|
F|-----------------------------------|
C|----5---5---5---5---3---3---2---2--|
G|--3---3---3---3---1---1---0---0----|
C|-----------------------------------|
    . . . . . . . . . . . . . . . .

D|----------------------------|
A|----------------------------|
F|----------------------------|
C|--1010----1010----12/0------|
G|--1010----1010----12/0------|
C|--1010----1010----12/0------|
     ^--10's------------------|

OUTRO:
D|---------------------------------------------------------|
A|---------------------------------------------------------|
F|---------------------------------------------------------|
C|--12---0---12---0---0h10---12---0---12-------------------|
G|--12---0---12---0---0h10---12---0---12-------------------|
C|--12---0---12---0---0h10---12---0---12--0-12-0-15-12-10--|

================================================================================================================

3. THE FUTURE IN THE END

INTRO PART 1/PRECHORUS/BRIDGE:
D|------------------------------------------------------------------|
A|------------------------------------------------------------------|
F|----------------7-------------------------------7-----------------|
C|--------------7-------5-7---------------------7-------5-7---------|
G|----5-7---5-7-------5-----7-8-7-8---5-7---5-7-------5-----7-8-7-8-|
C|--0-----0---------0---------------8-----8---------8---------------|

D|------------------------------------------------------------------|
A|------------------------------------------------------------------|
F|------------------------------------------------------------------|
C|--0-------0-0-0-0---------0-0-0-0-8-------8-8-8-8---------8-8-8-8-|
G|--0-------0-0-0-0---------0-0-0-0-8-------8-8-8-8---------8-8-8-8-|
C|--0-0-0-0-0-0-0-0-0-0-0-0-0-0-0-0-8-8-8-8-8-8-8-8-8-8-8-8-8-8-8-8-|
      . . .         . . . .           . . .         . . . .

D|------------------------------------------------------------------|
A|------------------------------------------------------------------|
F|----------------7-------------------------------7-----------------|
C|--------------7-------5-7---------------------7-------------------|
G|----5-7---5-7-------5-----7-8-7-8---5-7---5-7---------------------|
C|--5-----5---------5---------------8-----8-------------------------|

D|------------------------------------------------------------------|
A|------------------------------------------------------------------|
F|------------------------------------------------------------------|
C|--5-------5-5-5-5---------5-5-5-5-8-------8-8-8-8--------------2--|
G|--5-------5-5-5-5---------5-5-5-5-8-------8-8-8-8--0-------0-1----|
C|--5-5-5-5-5-5-5-5-5-5-5-5-5-5-5-5-8-8-8-8-8-8-8-8----3-2-0--------|
      . . .         . . . .           . . .

INTRO PART 2/CHORUS:
D|-------------------------------------------------------------------------------|
A|-------------------------------------------------------------------------------|
F|--14---14---14-14--14-14-14-14-12-12-12--15---15---15-15--15-15-15-15-14-14-14-|
C|--x----x----x--x---x--x--x--x--x--x--x---x----x----x--x---x--x--x--x--x--x--x--|
G|--12---12---12-12--12-12-12-12-10-10-10--13---13---13-13--13-13-13-13-12-12-12-|
C|-------------------------------------------------------------------------------|

D|-------------------------------------------------------------------------------|
A|-------------------------------------------------------------------------------|
F|-------------------------------------------------------------------------------|
C|--0----0----0--0---0--0--0--0--0--0--0---8----8----8--8---8--8--8--8--8--8--8--|
G|--0----0----0--0---0--0--0--0--0--0--0---8----8----8--8---8--8--8--8--8--8--8--|
C|--0----0----0--0---0--0--0--0--0--0--0---8----8----8--8---8--8--8--8--8--8--8--|


D|-------------------------------------------------------------------------------|
A|-------------------------------------------------------------------------------|
F|--15----15----15----14------12~----------15----15----15----14~~~~/17---17---17-|
C|--x-----x-----x-----x-------x------------x-----x-----x-----x------x----x----x--|
G|--13----13----13----12------10~----------13----13----13----12~~~~/15---15---15-|
C|-------------------------------------------------------------------------------|

D|-------------------------------------------------------------------------------|
A|-------------------------------------------------------------------------------|
F|-------------------------------------------------------------------------------|
C|--5----5----5--5---5--5--5--5--5--5--5---8----8----8--8---8--8--8--8--8--8--8--|
G|--5----5----5--5---5--5--5--5--5--5--5---8----8----8--8---8--8--8--8--8--8--8--|
C|--5----5----5--5---5--5--5--5--5--5--5---8----8----8--8---8--8--8--8--8--8--8--|

VERSE:
D|------------------------------------------------------------------|
A|------------------------------------------------------------------|
F|----------------7-------------------------------7-----------------|
C|--------------7-------5-7---------------------7-------5-7---------|
G|----5-7---5-7-------5-----7-8-7-8---5-7---5-7-------5-----7-8-7-8-|
C|--0-----0---------0---------------8-----8---------8---------------|

D|------------------------------------------------------------------|
A|------------------------------------------------------------------|
F|------------------------------------------------------------------|
C|------------------------------------------------------------------|
G|--0--0---0--0---0--0---0--0----0--8--8---8--8---8--8---8--8----8--|
C|--0--0---0--0---0--0---0--0----0--8--8---8--8---8--8---8--8----8--|
    .  .   .  .   .  .   .  .    .  .  .   .  .   .  .   .  .    .

D|------------------------------------------------------------------|
A|------------------------------------------------------------------|
F|----------------7-------------------------------7-----------------|
C|--------------7-------5-7---------------------7-------5-7---------|
G|----5-7---5-7-------5-----7-8-7-8---5-7---5-7-------5-----7-8-7-8-|
C|--5-----5---------5---------------8-----8---------8---------------|

D|------------------------------------------------------------------|
A|------------------------------------------------------------------|
F|------------------------------------------------------------------|
C|------------------------------------------------------------------|
G|--5--5---5--5---5--5---5--5----5--8--8---8--8---8--8---8--8----8--|
C|--5--5---5--5---5--5---5--5----5--8--8---8--8---8--8---8--8----8--|
    .  .   .  .   .  .   .  .    .  .  .   .  .   .  .   .  .    .

================================================================================================================

4. A STEP BACK

Credit to: https://www.youtube.com/watch?v=e5e1hJQssuE

The intro is played on piano, but it can be played on guitar.
In this song, both guitars play the same thing. It can be played on a single guitar.

INTRO:
D|-------------------------------------------------------------|
A|-------------------------------------------------------------|
F|----------------------------------------------------------0~-|
C|----0---0---0---0---0---0---0---0---0---0---0---0---0---0----|
G|--8---8---8---8---7---7---7---7---8---8---8---8---7---7------|
C|-------------------------------------------------------------|

VERSE:
D|------------------------------------------------------------------|
A|------------------------------------------------------------------|
F|--10--10--10--10--9---9---9---9---10--10--10--10--9---9---9---9---|
C|--x---x---x---x---x---x---x---x---x---x---x---x---x---x---x---x---|
G|--8---8---8---8---7---7---7---7---8---8---8---8---7---7---7---7---|
C|------------------------------------------------------------------|

D|----------------------------------|
A|----------------------------------|
F|----------------------------------|
C|--8---8---8---8---10--10--10--10--|
G|--8---8---8---8---10--10--10--10--|
C|--8---8---8---8---10--10--10--10--|

PRECHORUS:
D|------------------------------------|
A|------------------------------------|
F|--10~-------10~------12~--------12~-|
C|--8~----x-x-8~-------10~----x-x-10~-|
G|--8~----x-x-8~-------10~----x-x-10~-|
C|--8~----x-x-8~-------10~----x-x-10~-|

CHORUS:
D|----------------------------------------------------------------------------|
A|----------------------------------------------------------------------------|
F|-------------------------------------------------------10~-------------12~--|
C|--0~---x-x--0-0--0h10---0~--x-x--0-0--0h10---8~---x-x--8~---10~---x-x--10~--|
G|--0~---x-x--0-0--0h10---0~--x-x--0-0--0h10---8~---x-x--8~---10~---x-x--10~--|
C|--0~---x-x--0-0--0h10---0~--x-x--0-0--0h10---8~---x-x--8~---10~---x-x--10~--|

BRIDGE:
D|------|
A|------|
F|--2~--|
C|--0~--|
G|--0~--|
C|--0~--|

D|-------------------------------------------------------------|
A|-------------------------------------------------------------|
F|-------------------------------------------------------------|
C|--0-0-5-5-3-3-0-0-5-5-3-3-0-0-5-5-3-3-0-0-5-5-3-3-10-10-8-8--|
G|--0-0-5-5-3-3-0-0-5-5-3-3-0-0-5-5-3-3-0-0-5-5-3-3-10-10-8-8--|
C|--0-0-5-5-3-3-0-0-5-5-3-3-0-0-5-5-3-3-0-0-5-5-3-3-10-10-8-8--|

The first part of the bridge plays these same notes, just palm muted and on the root note only.
The second part plays the full chords.

D|-------------------------------|
A|-------------------------------|
F|-------------------------------|
C|--8-8-8-8-10---10---10--10-10--|
G|--8-8-8-8-10---10---10--10-10--|
C|--8-8-8-8-10---10---10--10-10--|

This leads into the final chorus.


================================================================================================================

5. SAY IT

INTRO/VERSE (Both Guitars):
D|-----------------------------------------------------------|
A|-----------------------------------------------------------|
F|-----------------------------------------------------------|
C|--5~----x-x---x-5~----x-x---x-5~----x-x---x-5~----x-x---x--|
G|--5~----x-x---x-5~----x-x---x-5~----x-x---x-5~----x-x---x--|
C|--5~----x-x---x-5~----x-x---x-5~----x-x---x-5~----x-x---x--|

D|-----------------------------------------------------------|
A|-----------------------------------------------------------|
F|-----------------------------------------------------------|
C|--1~----x-x---x-1~----x-x---x-1~----x-x---x-1~----x-x---x--|
G|--1~----x-x---x-1~----x-x---x-1~----x-x---x-1~----x-x---x--|
C|--1~----x-x---x-1~----x-x---x-1~----x-x---x-1~----x-x---x--|

PRECHORUS:
D|------3-----------------------------------3----------------|
A|--------5------3~---------------------------5------3~------|
F|----5------5----------------------------5------5-----------|
C|--3----------3------------------------3----------3---------|
G|-----------------------------------------------------------|
C|-----------------------------------------------------------|

D|-----------------------------------------------------------|
A|-----------------------------------------------------------|
F|-----------------------------------------------------------|
C|--3~----------------1~----------------3~----------------1--|
G|--3~----------------1~----------------3~----------------1--|
C|--3~----------------1~----------------3~----------------1--|


CHORUS (Both Guitars):
D|-------------------------------|
A|-------------------------------|
F|-------------------------------|
C|--5------1------8------3---4---|
G|--5------1------8------3---4---|
C|--5------1------8------3---4---|
   (x8)   (x8)   (x8)   (x6)(x1)

SOLO (Lead Only):
D|-----------------------------------------------------------------------------------------------------|
A|-----------------------------------------------------------------------------------------------------|
F|--12-12-12-12-12-12-12-12----------------------------------------------------15-15-15-15-14-14-14-14-|
C|--------------------------12-12-12-12-12-12-12-12-13-13-13-13-13-13-13-13-13-------------------------|
G|-----------------------------------------------------------------------------------------------------|
G|-----------------------------------------------------------------------------------------------------|

BRIDGE/OUTRO:
D|-----------------------------------------------------------------------------------------------------------|
A|-----------------------------------------------------------------------------------------------------------|
F|--0-0-0-0-0-0-0-0-2-2-2-2-2-2-2-2-3-3-3-3-3-3-3-3-7-7-7-7-5-5-5-5-3-3-3-3-3-3-3-3-7-7-7-7-7-7-7-7-8~-------|
C|-----------------------------------------------------------------------------------------------------------|
G|-----------------------------------------------------------------------------------------------------------|
C|-----------------------------------------------------------------------------------------------------------|

D|--------------------------------------------------------------------------------------------------|
A|--------------------------------------------------------------------------------------------------|
F|--------------------------------------------------------------------------------------------------|
C|--5-5-5-5-5-5-5-5-0-0-0-0-0-0-0-0-1-1-1-1-1-1-1-1-8-8-8-8-7-7-7-7-5-5-5-5-5-5-5-5-0-0-0-0-0-0-0-0-|
G|--5-5-5-5-5-5-5-5-0-0-0-0-0-0-0-0-1-1-1-1-1-1-1-1-8-8-8-8-7-7-7-7-5-5-5-5-5-5-5-5-0-0-0-0-0-0-0-0-|
C|--5-5-5-5-5-5-5-5-0-0-0-0-0-0-0-0-1-1-1-1-1-1-1-1-8-8-8-8-7-7-7-7-5-5-5-5-5-5-5-5-0-0-0-0-0-0-0-0-|

D|-------------------------|
A|-------------------------|
F|-------------------------|
C|-1-1-1-1--x-1-1-1-1--x-3-|
G|-1-1-1-1--x-1-1-1-1--x-3-|
C|-1-1-1-1--x-1-1-1-1--x-3-|

FINAL PRECHORUS:
D|------3-------------------------------3----------------|
A|--------5------3~-----------------------5------3~------|
F|----5------5------------------------5------5-----------|
C|--3----------3--------------------3----------3---------|
G|-------------------------------------------------------|
C|-------------------------------------------------------|

D|-------------------------------------------------------|
A|-------------------------------------------------------|
F|--5-5-5-5-5-5-5-5-8-8-8-8-8-8-8-8-5-5-5-5-5-5-5-5-5----|
C|--3-3-3-3-3-3-3-3-x-x-x-x-x-x-x-x-3-3-3-3-3-3-3-3-3-1--|
G|--3-3-3-3-3-3-3-3-6-6-6-6-6-6-6-6-3-3-3-3-3-3-3-3-3-1--|
C|--3-3-3-3-3-3-3-3-----------------3-3-3-3-3-3-3-3-3-1--|

LAST OUTRO CHORD
D|-------|
A|-------|
F|-------|
C|--5~---|
G|--5~---|
C|--5~---|

================================================================================================================

6. WHO WE ARE

I made a tab for this song seperate from this one, and the tuning of it was D standard.
This can also be played in Drop C, with an additional acoustic guitar in D standard.
The acoustic guitar plays regular chords. These chords will be listed beteen the two guitar tracks.

INTRO:
D|--10h12~------10h12--15--12--10--8--10--12--7~--------------7h8/5-----|
A|----------------------------------------------------------------------|
F|----------------------------------------------------------------------|
C|----------------------------------------------------------------------|
G|----------------------------------------------------------------------|
C|----------------------------------------------------------------------|
    Am                                    G
D|--------0-0-0-0------------------------------0-0-0-0------------------|
A|----------------0-0-0-0------------------------------0-0-0-0----------|
F|----------------------------------------------------------------------|
C|----------------------------------------------------------------------|
G|----------------------------------------------------------------------|
C|----------------------------------------------------------------------|
          . . . . . . . .                      . . . . . . . .

D|----------------------------------10-------------------------------|
A|--------10h12--13--15--13--12--10----8--10-6--8-5--6-3--5-1--0-1-3-|
F|-------------------------------------------------------------------|
C|-------------------------------------------------------------------|
G|-------------------------------------------------------------------|
C|-------------------------------------------------------------------|
  Am                                   G
D|----0-0-0-0-----------------------------------0-0-0-0--------------|
A|------------0-0-0-0-----------------------------------0-0-0-0------|
F|-------------------------------------------------------------------|
C|-------------------------------------------------------------------|
G|-------------------------------------------------------------------|
C|-------------------------------------------------------------------|
      . . . . . . . .                           . . . . . . . .


VERSE PART 1:
  Am                          G
D|----0-0-0-0---------------------0-0-0-0--------------|
A|------------0-0-0-0---------------------0-0-0-0------|
F|-----------------------------------------------------|
C|-----------------------------------------------------|
G|-----------------------------------------------------|
C|-----------------------------------------------------|
      . . . . . . . .             . . . . . . . .

VERSE PART 2:
  Am                          F
D|----0-0-0-0---------------------0-0-0-0--------------|
A|------------0-0-0-0---------------------0-0-0-0------|
F|-----------------------------------------------------|
C|-----------------------------------------------------|
G|-----------------------------------------------------|
C|-----------------------------------------------------|
      . . . . . . . .             . . . . . . . .

PRECHORUS:
D|-----------------------------------------------------|
A|-----------------------------------------------------|
F|-----------------------------------------------------|
C|-9~--------------------------------------------------|
G|------------------------------10~--------------------|
C|-----------------------------------------------------|
  G                           F
D|----0-0-0-0---------------------0-0-0-0--------------|
A|------------0-0-0-0---------------------0-0-0-0------|
F|-----------------------------------------------------|
C|-----------------------------------------------------|
G|-----------------------------------------------------|
C|-----------------------------------------------------|
      . . . . . . . .             . . . . . . . .

CHORUS:
D|-----8-----------8-----------8-----------8-------|
A|--------8-----------8-----------8-----------8----|
F|--6-------6---6-------6---6-------6---6-------6--|
C|-------------------------------------------------|
G|-------------------------------------------------|
C|-------------------------------------------------|
    C           G           Am          F
D|-------------------------------------------------|
A|-------------------------------------------------|
F|-------------------------------------------------|
C|--10~---------5~----------7~----------3~---------|
G|--10~---------5~----------7~----------3~---------|
C|--10~---------5~----------7~----------3~---------|

BRIDGE PART 1:
D|--------------------------------------------------------------------------|
A|--------------------------------------------------------------------------|
F|--------------------------------------------------------------------------|
C|--10-10-10-10-10-10-10-10-5-5-5-5-5-5-5-5-7-7-7-7-7-7-7-7-3-3-3-3-3-3-3-3-|
G|--10-10-10-10-10-10-10-10-5-5-5-5-5-5-5-5-7-7-7-7-7-7-7-7-3-3-3-3-3-3-3-3-|
C|--10-10-10-10-10-10-10-10-5-5-5-5-5-5-5-5-7-7-7-7-7-7-7-7-3-3-3-3-3-3-3-3-|
                                                            . . . .

BRIDGE PART 2:

C G Am F

OUTRO:
D|---------------------------0~-|
A|---------------------------1~-|
F|---------------------------2~-|
C|---------------------------2~-|
G|---------------------------0~-|
C|------------------------------|
      C         G       F    Am
D|------------------------------|
A|------------------------------|
F|----5---5-5-5-----------------|
C|----5---5-5-5-5---5---3~------|
G|----3---3-3-3-5---5---3~------|
C|--------------5---5---3~------|


================================================================================================================

7. BULLETPROOF

INTRO PART 1:
D|-------12--------------------------|
A|----12-----------------------------|
F|-----------------------------------|
C|-----------------------------------|
G|-----------------------------------|
C|-----------------------------------|

D|-----------------------------------|
A|----3h5-5-5-6p5-5-5-3h5-5-5-6-0----|
F|-----------------------------------|
C|-----------------------------------|
G|-----------------------------------|
C|-----------------------------------|

These 12's are played on the second time.

INTRO PART 2:
D|-----------------------------------|
A|-----------------------------------|
F|-----------------------------------|
C|----12--0--2-----------------------|
G|----12--0--2-----------------------|
C|----12--0--2-----------------------|

The 12's from the lead continue to ring out

D|------------------------------------------|
A|------------------------------------------|
F|------------------------------------------|
C|--2-2-2-2-2-2-2-2-2-2-2-2-2-2-2-2-2-2-2-2-|
G|--2-2-2-2-2-2-2-2-2-2-2-2-2-2-2-2-2-2-2-2-|
C|--2-2-2-2-2-2-2-2-2-2-2-2-2-2-2-2-2-2-2-2-|
    . . . . . .     . . . .     . . . .

INTRO PART 3:
D|----121212------------------------------------| These are 12's, 13's and 14's
A|----------121212------131313------------------|
F|----------------121212------1212121414149999--|
C|----------------------------------------------|
G|----------------------------------------------|
C|----------------------------------------------|

D|----------------------------------------------|
A|----------------------------------------------|
F|----------------------------------------------|
C|--x-2-2-2-2--x-2-2-2-2--x-2-2-2-2--x-2-2-2-2--|
G|--x-2-2-2-2--x-2-2-2-2--x-2-2-2-2--x-2-2-2-2--|
C|--x-2-2-2-2--x-2-2-2-2--x-2-2-2-2--x-2-2-2-2--|

VERSE:
D|----10-----|
A|-----------|
F|-----------|
C|-----------|
G|-----------|
C|-----------|

I'm wasn't able to make out every note, except for this 10.

PRECHORUS:
D|----------------------------------------------------------|
A|----------------------------------------------------------|
F|----------------------------------------------------------|
C|----------------------------------------------------------|
G|--2~-------10~-------5~-------0~-------2~-------10~-------|
C|--2~-------10~-------5~-------0~-------2~-------10~-------|

The lead continues to play the verse, while the rythm plays this.

CHORUS:
D|--------------------------------------------------------------------------------------------------|
A|--------------------------------------------------------------------------------------------------|
F|--15-15-15-15-15-15-15-15-18-18-18-18-16-16-16-16-15-15-15-15-15-15-15-15-13-13-13-13-13-13-13-13-|
C|--x--x--x--x--x--x--x--x--x--x--x--x--x--x--x--x--x--x--x--x--x--x--x--x--x--x--x--x--x--x--x--x--|
G|--13-13-13-13-13-13-13-13-16-16-16-16-14-14-14-14-13-13-13-13-13-13-13-13-11-11-11-11-11-11-11-11-|
C|--------------------------------------------------------------------------------------------------|

D|--------------------------------------------------------------------------------------------------|
A|--------------------------------------------------------------------------------------------------|
F|--------------------------------------------------------------------------------------------------|
C|--5-----------------------------------------------0-----------------------------------------------|
G|--5-----------------------------------------------0-----------------------------------------------|
C|--5-----------------------------------------------0-----------------------------------------------|

Not exactly sure what the strumming pattern is.

D|--------------------------------------------------------------------------------------------------|
A|--------------------------------------------------------------------------------------------------|
F|--15-15-15-15-15-15-15-15-15-15-15-15-15-15-15-15-11-11-11-11-13-13-13-13-15-15-15-15-10-10-10-10-|
C|--x--x--x--x--x--x--x--x--x--x--x--x--x--x--x--x--x--x--x--x--x--x--x--x--x--x--x--x--x--x--x--x--|
G|--13-13-13-13-13-13-13-13-13-13-13-13-13-13-13-13-9--9--9--9--11-11-11-11-13-13-13-13-8--8--8--8--|
C|--------------------------------------------------------------------------------------------------|

D|--------------------------------------------------------------------------------------------------|
A|--------------------------------------------------------------------------------------------------|
F|--------------------------------------------------------------------------------------------------|
C|--2-----------------------------------------------10----------------------12----------------------|
G|--2-----------------------------------------------10----------------------12----------------------|
C|--2-----------------------------------------------10----------------------12----------------------|

BRIDGE/SOLO:
D|--19----------------17---------20-19-15-----------------14-------10-------|
A|--------------------------------------------------------------------------|
F|--------------------------------------------------------------------------|
C|--------------------------------------------------------------------------|
G|--------------------------------------------------------------------------|
C|--------------------------------------------------------------------------|

D|--------------------------------------------------------------------------|
A|--------------------------------------------------------------------------|
F|--------------------------------------------------------------------------|
C|--0--0--0--0--0--0--0--0--0--0--5--3--0--0--0--0--0--0--0--0--0--0--0--0--|
G|--0--0--0--0--0--0--0--0--0--0--5--3--0--0--0--0--0--0--0--0--0--0--0--0--|
C|--0--0--0--0--0--0--0--0--0--0--5--3--0--0--0--0--0--0--0--0--0--0--0--0--|
    .  .  .  .  .  .  .  .  .  .        .  .  .  .  .  .  .  .  .  .  .  .
The solo notes are picked excessivley


FINAL PRECHORUS:
D|----------------------------------------------------------|
A|--15b------17b------19b------15-------15b-----------------|
F|----------------------------------------------------------|
C|----------------------------------------------------------|
G|----------------------------------------------------------|
C|----------------------------------------------------------|

D|----------------------------------------------------------|
A|----------------------------------------------------------|
F|----------------------------------------------------------|
C|------------------------------------------------12/0------|
G|--2~-------10~-------5~-------0~-------2~-------12/0------|
C|--2~-------10~-------5~-------0~-------2~-------12/0------|

OUTRO
D|--19----------------17---------20-19-15-----------------14-------10-14-10-12/--|
A|-------------------------------------------------------------------------------|
F|-------------------------------------------------------------------------------|
C|-------------------------------------------------------------------------------|
G|-------------------------------------------------------------------------------|
C|-------------------------------------------------------------------------------|

D|-------------------------------------------------------------------------------|
A|-------------------------------------------------------------------------------|
F|-------------------------------------------------------------------------------|
C|--0--0--0--0--0--0--0--0--0--0--5--3--0--0--0--0--0--0--0--0--0--8--5--3--0----|
G|--0--0--0--0--0--0--0--0--0--0--5--3--0--0--0--0--0--0--0--0--0--8--5--3--0----|
C|--0--0--0--0--0--0--0--0--0--0--5--3--0--0--0--0--0--0--0--0--0--8--5--3--0----|

This is the second part of the outro. The first part is the same as the bridge, but the 
0's are not palm muted.

================================================================================================================

8. I BLAME YOU

INTRO PART 1:
D|----------------------------------------------|
A|----------------------------------------------|
F|--9-9-9-9-9-9-9p7---9-9-9-9-9-12-12-12-12-7---|
C|----------------------------------------------|
G|----------------------------------------------|
C|----------------------------------------------|

D|----------------------------------------------|
A|----------------------------------------------|
F|----------------------------------------------|
C|--2-----------2-0---2---------5--5--5--5--0---|
G|--2-----------2-0---2---------5--5--5--5--0---|
C|--2-----------2-0---2---------5--5--5--5--0---|


INTRO PART 2:
D|-----------------------------------------------------|
A|-----------------------------------------------------|
F|-16-16-16-16-16-16-16-16-14-14-14-14-19-19-19-19-14--|
C|-x--x--x--x--x--x--x--x--x--x--x--x--x--x--x--x--x---|
G|-14-14-14-14-14-14-14-14-12-12-12-12-17-17-17-17-12--|
C|-----------------------------------------------------|

D|-----------------------------------------------------|
A|-----------------------------------------------------|
F|-----------------------------------------------------|
C|-2--2--2--2--2--2--2--2--0--0--0--0--5--5--5--5--0---|
G|-2--2--2--2--2--2--2--2--0--0--0--0--5--5--5--5--0---|
C|-2--2--2--2--2--2--2--2--0--0--0--0--5--5--5--5--0---|
                                       .  .  .  .

D|-----------------------------------------------------|
A|-----------------------------------------------------|
F|-16-16-16-16-16-16-16-16-14-14-14-14-11-11-11-11-12--|
C|-x--x--x--x--x--x--x--x--x--x--x--x--x--x--x--x--x---|
G|-14-14-14-14-14-14-14-14-12-12-12-12-9--9--9--9--10--|
C|-----------------------------------------------------|

D|-----------------------------------------------------|
A|-----------------------------------------------------|
F|-----------------------------------------------------|
C|-2--2--2--2--2--2--2--2--0--0--0--0--5--5--5--5--0---|
G|-2--2--2--2--2--2--2--2--0--0--0--0--5--5--5--5--0---|
C|-2--2--2--2--2--2--2--2--0--0--0--0--5--5--5--5--0---|
                                       .  .  .  .

VERSE (Both Guitars):
D|--------------------------------------|
A|--------------------------------------|
F|--------------------------------------|
C|-------2-----2-------2------------0---|
G|--2-2--2--2--2--2-2--2--5-5-5-5-5-0---|
C|--2-2--2--2--2--2-2--2--5-5-5-5-5-0---|
    . .     .     . .     . . . . .

PRECHORUS:
D|-----------------------------------------------------------------|
A|-----------------------------------------------------------------|
F|--16--16--16--16--19--19--19--19---9-9-9---9-9-9---9-9-9---9-9-9-|
C|--x---x---x---x---x---x---x---x----x-x-x---x-x-x---x-x-x---x-x-x-|
G|--14--14--14--14--17--17--17--17---7-7-7---7-7-7---7-7-7---7-7-7-|
C|-----------------------------------------------------------------|

D|-----------------------------------------------------------------|
A|-----------------------------------------------------------------|
F|-----------------------------------------------------------------|
C|--10--10--10--10--12--12--12--12---2-2-2---2-2-2---2-2-2---2-2-2-|
G|--10--10--10--10--12--12--12--12---2-2-2---2-2-2---2-2-2---2-2-2-|
C|--10--10--10--10--12--12--12--12---2-2-2---2-2-2---2-2-2---2-2-2-|


D|-------------------------------|
A|-------------------------------|
F|--16--16--16--16--19--19--19---|
C|--x---x---x---x---x---x---x----|
G|--14--14--14--14--17--17--17---|
C|-------------------------------|

D|-------------------------------|
A|-------------------------------|
F|-------------------------------|
C|--10--10--10--10--12--12--12---|
G|--10--10--10--10--12--12--12---|
C|--10--10--10--10--12--12--12---|

CHORUS:
D|----------------------------------|
A|----------------------------------|
F|--9--------12--------7--------14--|
C|--x--------x---------x--------x---|
G|--7--------10--------5--------12--|
C|----------------------------------|

D|----------------------------------|
A|----------------------------------|
F|----------------------------------|
C|--2--------10--------5--------12--|
G|--2--------10--------5--------12--|
C|--2--------10--------5--------12--|

Not exactly what the strumming pattern is.
I do not have enough experience or skill to learn the solo. If someone else can do it, feel free to.

BRIDGE (Rythm Only):
D|----------------------------------|
A|----------------------------------|
F|----------------------------------|
C|--2--2----------------------2--2--|
G|--2--2----2-2-2-2-3-3-2-2-0-2--2--|
C|--2--2----------------------2--2--|


D|--------------------------|
A|--------------------------|
F|--7---9---11--7----12/11--|
C|--x---x---x---x----x-/x---|
G|--5---7---9---5----10/9---|
C|--------------------------|

D|--------------------------|
A|--------------------------|
F|--------------------------|
C|--0--x-x-0--x-x-0---0-0---|
G|--0--x-x-0--x-x-0---0-0---|
C|--0--x-x-0--x-x-0---0-0---|

FINAL CHORUS:
D|---------------------------------------------------------------------------------------|
A|---------------------------------------------------------------------------------------|
F|---------------------------------------------------------------------------------------|
C|--2-2-x-x-2-x-x-2-x-x-10-10-x-x-10-x-x-10-x-x-5-5-x-x-5-x-x-5-x-x-12-12-x-x-12-x-x-12--|
G|--2-2-x-x-2-x-x-2-x-x-10-10-x-x-10-x-x-10-x-x-5-5-x-x-5-x-x-5-x-x-12-12-x-x-12-x-x-12--|
C|--2-2-x-x-2-x-x-2-x-x-10-10-x-x-10-x-x-10-x-x-5-5-x-x-5-x-x-5-x-x-12-12-x-x-12-x-x-12--|

This is just the chrous with a different strumming pattern, and dead notes.
Do the same with the lead guitar.

================================================================================================================

9. THROUGH YOUR EYES

INTRO:
D|--------------------------------------------------|
A|--------------------------------------------------|
F|--------------------------------------------------|
C|--0--x-x--0h7--8--0h8-10---0--x-x--0h5--8--0h3-5--|
G|--0--x-x--0h7--8--0h8-10---0--x-x--0h5--8--0h3-5--|
C|--0--x-x--0h7--8--0h8-10---0--x-x--0h5--8--0h3-5--|

D|---------------------------------------------|
A|---------------------------------------------|
F|---------------------------------------------|
C|--0--x-x--0h7--8--0h8-10---8-8--x-3-3--x-10--|
G|--0--x-x--0h7--8--0h8-10---8-8--x-3-3--x-10--|
C|--0--x-x--0h7--8--0h8-10---8-8--x-3-3--x-10--|

D|-------------------------------------|
A|--------16~---------16~---------16~--|
F|--19~---------19~---------19~--------|
C|-------------------------------------|
G|-------------------------------------|
C|-------------------------------------|

This is played on the lead guitar after playing the intro twice.
The rythm continues to play the intro.

For the rest of the song I cann't figure out the lead parts.

VERSE PART 1:
D|----------------------------------|
A|----------------------------------|
F|----------------------------------|
C|--0~---------/7--0~---------/7----|
G|--0~---------/7--0~---------/7----|
C|--0~---------/7--0~---------/7----|

This is played throughout the verse.

PRECHORUS:
D|------------------------------------------------------------------------------------------------|
A|------------------------------------------------------------------------------------------------|
F|------------------------------------------------------------------------------------------------|
C|--8~---------10--0~--------7-7-7-7-7-7-7-7-8-8-8-8-8-8-8-8-0-0-0-0-0-0-0-0-8-8-8-8-10-10-10-10--|
G|--8~---------10--0~--------7-7-7-7-7-7-7-7-8-8-8-8-8-8-8-8-0-0-0-0-0-0-0-0-8-8-8-8-10-10-10-10--|
C|--8~---------10--0~--------7-7-7-7-7-7-7-7-8-8-8-8-8-8-8-8-0-0-0-0-0-0-0-0-8-8-8-8-10-10-10-10--|

CHORUS:
D|---------------------------------------|
A|---------------------------------------|
F|---------------------------------------|
C|--0~-------8~-------10~-------3~-------|
G|--0~-------8~-------10~-------3~-------|
C|--0~-------8~-------10~-------3~-------|

BRIDGE:
D|----------------------------------------------------------|
A|----------------------------------------------------------|
F|----------------------------------------------------------|
C|----------------------------------------------------------|
G|--------------------------3-5-------------------------0-3-|
C|--0--0----0-0--0----0-3-5-----0--0----0-0--0----0-3-5-----|
    .  .    . .  .    . . . . . .  .    . .  .    . . . . .

D|----------------------------------------------------------|
A|----------------------------------------------------------|
F|----------------------------------------------------------|
C|--0--0----0-0--0--------------0--0----0-0--0--------------|
G|--0--0----0-0--0----------3-5-0--0----0-0--0----------0-3-|
C|--0--0----0-0--0----0-3-5-----0--0----0-0--0----0-3-5-----|

The second part of the prechorus is played during the solo.
I do not have enough experience or skill to learn the solo. If someone else can do it, feel free to.

================================================================================================================

10. SHOW ME

Credit to "Burn The Temple"

D|----------------------------------------------------------------------|
A|----------------------------------------------------------------------|
F|----------------------------7-----7------------------------------6----|
C|-------9----12-11-9-------7-----7----------2---5-4-2-------7---4---4--|
G|----------9-------------0-----------0--------2-----------5------------|
C|-----9---------------0------------------2-------------5------4--------|

Pre-Chorus: 1x
D|----------------------------------------------------------------------|
A|----------------------------------------------------------------------|
F|----------------------------------------------------------------------|
C|----------------------------------------------------------------------|
G|----5-5-5-5-5-5-5-5-7-7-7-7-7-7-7-7-9-9-9-9-9-9-9-9-7-7-7-5-5-5-5-----|
C|----5-5-5-5-5-5-5-5-7-7-7-7-7-7-7-7-9-9-9-9-9-9-9-9-7-7-7-5-5-5-5-----|
      . . . . . . . . . . . . . . . . . . . . . . . . . . . . . . .

D|----------------|
A|----3~----5~----|
F|----4~----6~----|
C|----5~----7~----|
G|----5~----7~----|
C|----------------|


Chorus: 2x (I'm not sure that I got the complete chords right, but I know the roots are correct)
D|---------------------------------------|
A|---------------------------------------|
F|---(11)-------(9)----------------------|
C|---(11)---5---(9)----2-----------------|
G|----9-----5----7-----2-----------0-2---|
C|----9-----5----7-----2---0-2-4-5-------|

End chorus on this chord as the intro/verse comes back in
D|------------|
A|------------|
F|------------|
C|-----9------|
G|-----9------|
C|-----9------|

================================================================================================================

11. CAN'T GO ON

INTRO:
D|--------------------------------------------------------------------------------------------------------------|
A|--------------------------------------------------------------------------------------------------------------|
F|-16--16-16-16--16-16-17--17-17-17-------------------16--16-16-16--16-16-17--17-17/19--------------------------|
C|-x---x--x--x---x--x--x---x--x--x--------------------x---x--x--x---x--x--x---x--x--x---------------------------|
G|-14--14-14-14--14-14-15--15-15-15-------------------14--14-14-14--14-14-15--15-15/17--------------------------|
C|--------------------------------------------------------------------------------------------------------------|

D|------------------------------------------------------------------------------------7*------------------------|
A|----------------------------------6~---6~---6~---6~-----------------------------------7*-6~---6~---6~---6~----|
F|----------------------------------5~---5~---5~---5~--------------------------------------5~---5~---5~---5~----|
C|----------------------------------3~---3~---3~---3~--------------------------------------3~---3~---3~---3~----|
G|----------------------------------3~---3~---3~---3~--------------------------------------3~---3~---3~---3~----|
C|----------------------------------3~---3~---3~---3~--------------------------------------3~---3~---3~---3~----|

This whole intro can be played on a single guitar, but that would require moving pretty 
far down the guitar,
so it's much easier to play on two.

For the rest of the song I cann't figure out the lead parts.

VERSE:
D|----------------|
A|----------------|
F|----------------|
C|--7~--------3~--|
G|--7~--------3~--|
C|--7~--------3~--|

PRECHORUS:
D|------|
A|------|
F|------|
C|--8~--|
G|--8~--|
C|--8~--|

CHORUS:
D|-----------------------------------|
A|-----------------------------------|
F|-----------------------------------|
C|--7~------3~------10~------5~------|
G|--7~------3~------10~------5~------|
C|--7~------3~------10~------5~------|

In the first part of the bridge, the same chords from the chorus are played, just strummed more as
opposed to just a single strum.

BRIDGE PART 2:
D|--------------------------------------------|
A|--------------------------------------------|
F|--------------------------------------------|
C|-------------------------------------3-3-3--|
G|-------------------------------------3-3-3--|
C|--7h8----5h7----7h8----5h7----7h8----3-3-3--|

Just to be clear: I know it sounds empty. I know there are more notes to it. But I can't 
figure them out.
I'm not sure if these are the root notes to the riff being played,
or if this is what the rythm guitar plays while the lead guitar plays the riff.

The third part of the bridge plays the same notes but palm muted.

================================================================================================================

12. ERASE MY SCARS

Credit to: CaseeeyXD

Intro/Verse : 4x (distorted)
D|-----------------------------------------------------------------|
A|-----------------------------------------------------------------|
F|-----------------------------------------------------------------|
C|-----3-----3----------5-----5----------7-----7-----8-----7-----5-|
G|-0-1---0-1---0-1--0-3---0-3---0-3--0-5---0-5---0-5---0-5---0-5---|
C|-----------------------------------------------------------------|

Chorus : 2x
D|---------------------------------------------|
A|---------------------------------------------|
F|----101010----12-12-12-----9-9-9-----1010-9--|
C|-0--8-8-8--0--10-10-10--0--7-7-7--0--8-8-7---|
G|-0--8-8-8--0--10-10-10--0--7-7-7--0--8-8-7---|
C|-0--x-x-x--0--x--x--x---0--x-x-x--0--xx-x----|

D|---strum-each-4-times-----------------|-----|
A|--------------------------------------|-----|
F|-8--10--9--9----------10--12--10--10--|-----|
C|-8--8---8--10--0------10--10--12--14--|--0~-|
G|-8--8---8--8---0(1x)--10--10--10--10--|--0~-|
C|-8--8---8--8---0------10--10--10--10--|--0~-|

Verse 2 : 1x
D|-------------------------------------------------------------------|
A|-------------------------------------------------------------------|
F|-------------------------------------------------------------------|
C|--8-8-8-8--8-8-8-8--8-10-10-10--10--10-10---0-0--0--0-0-0-0-0--10--|
G|--8-8-8-8--8-8-8-8--8-10-10-10--10--10-10---0-0--0--0-0-0-0-0--10--|
C|--8-8-8-8--8-8-8-8--8-10-10-10--10--10-10---0-0--0--0-0-0-0-0--10--|

D|-------------------------------------------------------------------|
A|-------------------------------------------------------------------|
F|-------------------------------------------------------------------|
C|--8-8-8--8--8-8-10-10-10--10--10-10-10--0-0--0--0-0-0-0-0--0--10~--|
G|--8-8-8--8--8-8-10-10-10--10--10-10-10--0-0--0--0-0-0-0-0--0--10~--|
C|--8-8-8--8--8-8-10-10-10--10--10-10-10--0-0--0--0-0-0-0-0--0--10~--|

Second Pre-Chorus : 1x
D|----------------------------------------------------------------------------------|
A|----------------------------------------------------------------------------------|
F|----------------------------------------------------------------------------------|
C|-----3-----3-----3-----3-----3(hold)------5-----5-----5-----5-----5(hold)---0-0-0-|
G|-0-1---0-1---0-1---0-1---0-1----------0-3---0-3---0-3---0-3---0-3-----------0-0-0-|
C|----------------------------------------------------------------------------0-0-0-|

Chorus :

Bridge 2x : 2x
D|------------------------------------------------------------------------------------|
A|------------------------------------------------------------------------------------|
F|------------------------------------------------------------------------------------|
C|------------------------------------------------------------------------------------|
G|------------------------------------------------------------------------------------|
C|-0-0-0000-12-8--00-10-7--00-8-7--00-3-5-3---0-0-0000-12-8--00-10-7--00-8-7--00-3-5--|

Vocal Bridge :
D|------------------------------------------------|-------------------------------|
A|--strum-each-4-times----------------------------|-------------------------------|
F|-8--10-9---10-9--10----------8--10-9-----10-----|-------------------------------|
C|-8--8--10--0--0--9---0-------8--8--10----10-----|-------------------------------|
G|-8--8--8---0--0--0---0(1x)---8--8--8--0--10(8x)-|-0-10-8-10-8-7-----------------|
C|-8--8--8---0--0--0---0-------8--8--8--0--10-----|-0-10-8-10-8-7-----------------|
                                                                              PM--|
Chorus :

Outro : 2x
D|------------------------------------------------------------| D|------|
A|------------------------------------------------------------| A|------|
F|------------------------------------------------------------| F|------|
C|------------------------------------------------------------| C|-00-0-|
G|-0-0-0--12-8--10-7--8-7--3-5-1--0-0-0--12-8--10-7--8-7--3-5-| G|-00-0-|
C|-0-0-0--12-8--10-7--8-7--3-5-1--0-0-0--12-8--10-7--8-7--3-5-| C|-00-0-|


End Verse : 3x
D|-----------------------------------------------------------------|
A|-----------------------------------------------------------------|
F|-----------------------------------------------------------------|
C|-----3-----3----------5-----5----------7-----7-----8-----7-----5-|
G|-0-1---0-1---0-1--0-3---0-3---0-3--0-5---0-5---0-5---0-5---0-5---|
C|-----------------------------------------------------------------|

================================================================================================================
Добавлено: 24.11.2015
Другие материалы по этой песне:
  • Аккорды и текст

Страница создана 24.11.2015
http://primanota.ru/evans-blue/evans-blue-album-chords.htm
Привет, Гость.
Предлагаем пройти революционный курс по гитаре.
Подарок от PrimaNota.Ru, забирай!