PrimaNota.ru - самый крупный в мире бесплатный архив песенных текстов, аккордов, табулатур и нот


Entombed - Serpent Speech - текст песни, таба, видео

Регистрация Запомнить меня
Войти через:  Facebook Google Twitter Vk Yandex Mail.ru

Entombed - Serpent Speech - текст песни, таба, видео

Печатать
Просмотров: 158
Уроки эстрадного вокала в Санкт-Петербурге
Band- Entombed
Song- Serpent Speech

Riff A
---------------------------------------------------------|
---------------------------------------------------------|
---------------------------------------------------------|
---------------------------------------------------------|
-5-2-2--2--5--7--5--5-2-2--2--5--8-8---------------------|
-3-0-0--0--3--5--3--3-0-0--0--3--6-6---------------------|

Riff B
------------------------------------12-------------------|
------------------------------------15^17----------------|
---------------------------------------------------------|
-5--8-8--8-8--8-8--8-5-9-9--9-9--9-9---------------------|
-3--6-6--6-6--6-6--6-3-7-7--7-7--7-7---------------------|
---------------------------------------------------------|


---------------------------------------------------------|
---------------------------------------------------------|
---------------------------------------------------------|
-5--8-8--8-8--8-8--8--5--9-9--9-9--9-9---11-9------------|
-3--6-6--6-6--6-6--6--3--7-7--7-7--7-7---9--7------------|
---------------------------------------------------------|


Riff C(solo)3 chords time it yerself
---------------------------------------------------------|
---------------------------------------------------------|
---------------------------------------------------------|
---------------------------------------------------------|
--7--5--8------------------------------------------------|
--5--3--6------------------------------------------------|

Riff D(timing...)
---------------------------------------------------------|
---------------------------------------------------------|
---------------------------------------------------------|
---------------------------------------------------------|
--2--2-2--3/5-5-5/7-8\7\5--------------------------------|
--0--0-0--1/3-3-3/5-6\5\3--------------------------------|

Riff E(faster, faster)
---------------------------------------------------------|
---------------------------------------------------------|
---------------------------------------------------------|
---------------------------------------------------------|
----4-5----0-3-----4-5--10-------------------------------|
--2------1------2----------10-9-7-9----------------------|
Добавлено: 07.07.2012
Другие материалы по этой песне:
  • Аккорды и текст

Страница создана 15.04.2012
http://primanota.ru/entombed/serpent-speech-chords.htm
Привет, Гость.
Предлагаем пройти революционный курс по гитаре.
Подарок от PrimaNota.Ru, забирай!