PrimaNota.ru - самый крупный в мире бесплатный архив песенных текстов, аккордов, табулатур и нот


Entombed - State Of Emergency - текст песни, таба, видео

Регистрация Запомнить меня
Войти через:  Facebook Google Twitter Vk Yandex Mail.ru

Entombed - State Of Emergency - текст песни, таба, видео

Печатать
Просмотров: 135
Уроки эстрадного вокала в Санкт-Петербурге
Авторы музыки: Jake Burns

Band:  Entombed
Album: Sons of Satan Praise the Lord
Song:  State of Emergency (Stiff Little Fingers cover)

Copyright (c)  (Threeman Recordings) (2002)
Version 1.0 - (16/05/06)

Transcribed By: Steve
Email:          stephen.elvidge1@ntlworld.com


.  - palm mute           /  - slide up to
\  - slide down to       ~  - vibrato
h  - hammer on           b  - Bend
p  - pull off            Suffixes for bend
t  - tap                 f  - full bend    h - half bend
ph - pinched harmonic    q  - quarter bend t - tap bend
                         p  - pre bend
*  - see comment         ^  - Hold bend    r release bend
x  - Stuccatto           ~  - vibrato bend
,  - slight palm mute    () - ghost note, sustained note
"  - tremolo note        <> - harmonic

Tuning  Detuned 2 whole steps to C 

 Intro


 Guitar 1
[------------------------------------------|
[------------------------------------------|
[-7-7--------------------------------9\5---|
[-7-7--------------------------------9\5-5-|
[-5-5--------------------------------7\3-5-|
[----------------------------------------3-|
[Guitar 2
[       h   h   h   h   h   h   h   
[------------------------------------------|
[------------------------------------------|
[-----0-2p0-2p0-2p0-2p0-2p0-2p0-2p0--------|
[------------------------------------------|
[------------------------------------------|
[------------------------------------------|

 Guitar 1
[-------------------------------------------------|
[-------------------------------------------------|
[-2-----------------------------------------------|
[-2-----------------------------------------------|
[-0-----------------------------------------------|
[-------------------------------------------------|
[Guitar 2
[     h   h   h   h   h   h   h   h   h   h   h
[-------------------------------------------------|
[-------------------------------------------------|
[-------------------------------------------------|
[---0-2p0-2p0-2p0-2p0-2p0-2p0-2p0-2p0-2p0-2p0-2p0-|
[-------------------------------------------------|
[-------------------------------------------------|

 Guitar 1
[------------------------------------------|
[------------------------------------------|
[-7-7--------------------------------9\5---|
[-7-7--------------------------------9\5-5-|
[-5-5--------------------------------7\3-5-|
[----------------------------------------3-|
[Guitar 2
[       h   h   h   h   h   h   h   
[------------------------------------------|
[------------------------------------------|
[-----0-2p0-2p0-2p0-2p0-2p0-2p0-2p0--------|
[------------------------------------------|
[------------------------------------------|
[------------------------------------------|

 [---------------PM----------------]
|---------------------------------------|
|---------------------------------------|
|-2-2-2-2-2-2-2-2-2-2-2-2--2--2--2--2---|
|-2-2-2-2-2-2-2-2-2-2-2-2--2--2--2--2---|
|-0-0-0-0-0-0-0-0-0-0-0-0--0--0--0--0---|
|---------------------------------------|

 Verse

  [----------PM----------]     [---------------PM--------------]
|---------------------------------------------------------------|
|---------------------------------------------------------------|
|---------------------------------------------------------------|
|-7-7-7-7-7-7-7-7-7-7-7-7-9\5---2-2-2-2-2-2-2-2-2-2-2-2-2-2-2-2-|
|-5-5-5-5-5-5-5-5-5-5-5-5-7\3-5-0-0-0-0-0-0-0-0-0-0-0-0-0-0-0-0-|
|-----------------------------3---------------------------------| Rpt

 Chorus

  [---------------------PM-----------------------]
|--------------------------------------------------|
|--------------------------------------------------|
|--------------------------------------------------|
|-------------------------2-----2-----2-----2------|
|-5-----5-----5-----5-----0-000-0-000-0-000-0-000--|
|-3-333-3-333-3-333-3-333--------------------------| Rpt 3 X 

  [---------PM-----------]                Pick scrape
|--------------------------------------------------|
|--------------------------------------------------|
|--------------------------------------------------|
|-------------------------2---------(2)------------|
|-5-----5-----5-----5-----0---------(0)-----\-\----|
|-3-333-3-333-3-333-3-333--------------------\-\---|


       [-PM-]
|------------|
|------------|
|------------|
|-2--2-------|
|-2--2---2-5-|
|-0--0-0-----| Rpt 2 X

   PM   PM  PM  PM
|----------------------|
|----------------------|
|----------------------|
|-2---2---2---2---2-2--|
|-2---2---2---2---2-2--|
|-0-0-0-0-0-0-0-0-0-0--|



 Guitar 1
[----------------------------------------|
[----------------------------------------|
[-7--------------------------------9\5---|
[-7--------------------------------9\5-5-|
[-5--------------------------------7\3-5-|
[--------------------------------------3-|
[Guitar 2
[     h   h   h   h   h   h   h   
[----------------------------------------|
[----------------------------------------|
[---0-2p0-2p0-2p0-2p0-2p0-2p0-2p0--------|
[----------------------------------------|
[----------------------------------------|
[----------------------------------------|

 Guitar 1
[-------------------------------------------------|
[-------------------------------------------------|
[-2-----------------------------------------------|
[-2-----------------------------------------------|
[-0-----------------------------------------------|
[-------------------------------------------------|
[Guitar 2
[     h   h   h   h   h   h   h   h   h   h   h
[-------------------------------------------------|
[-------------------------------------------------|
[-------------------------------------------------|
[---0-2p0-2p0-2p0-2p0-2p0-2p0-2p0-2p0-2p0-2p0-2p0-|
[-------------------------------------------------|
[-------------------------------------------------|

 Guitar 1
[------------------------------------------|
[------------------------------------------|
[-7-7--------------------------------9\5---|
[-7-7--------------------------------9\5-5-|
[-5-5--------------------------------7\3-5-|
[----------------------------------------3-|
[Guitar 2
[       h   h   h   h   h   h   h   
[------------------------------------------|
[------------------------------------------|
[-----0-2p0-2p0-2p0-2p0-2p0-2p0-2p0--------|
[------------------------------------------|
[------------------------------------------|
[------------------------------------------|

 Guitar 1
 [---------------PM----------------]
[---------------------------------------|
[---------------------------------------|
[-2-2-2-2-2-2-2-2-2-2-2-2--2--2--2--2---|
[-2-2-2-2-2-2-2-2-2-2-2-2--2--2--2--2---|
[-0-0-0-0-0-0-0-0-0-0-0-0--0--0--0--0---|
[---------------------------------------|
[Guitar 2
[          ~~~~~~~~~~~~~~
[---------5-5-5-5-5---------------------|
[---------5-5-5-5-5-5-------------------|
[-------7-----------7br-5---5-----------|
[-------------------------7-------------|
[---------------------------------------|
[---------------------------------------|

 Rpt Verse
 Rpt Chorus

 Guitar 1
[----------------------------------------|
[----------------------------------------|
[-7--------------------------------9\5---|
[-7--------------------------------9\5-5-|
[-5--------------------------------7\3-5-|
[--------------------------------------3-|
[Guitar 2
[     h   h   h   h   h   h   h   
[----------------------------------------|
[----------------------------------------|
[---0-2p0-2p0-2p0-2p0-2p0-2p0-2p0--------|
[----------------------------------------|
[----------------------------------------|
[----------------------------------------|

 Guitar 1
[-------------------------------------------------|
[-------------------------------------------------|
[-2-----------------------------------------------|
[-2-----------------------------------------------|
[-0-----------------------------------------------|
[-------------------------------------------------|
[Guitar 2
[     h   h   h   h   h   h   h   h   h   h   h
[-------------------------------------------------|
[-------------------------------------------------|
[-------------------------------------------------|
[---0-2p0-2p0-2p0-2p0-2p0-2p0-2p0-2p0-2p0-2p0-2p0-|
[-------------------------------------------------|
[-------------------------------------------------|

 Guitar 1
[------------------------------------------|
[------------------------------------------|
[-7-7--------------------------------9\5---|
[-7-7--------------------------------9\5-5-|
[-5-5--------------------------------7\3-5-|
[----------------------------------------3-|
[Guitar 2
[       h   h   h   h   h   h   h   
[------------------------------------------|
[------------------------------------------|
[-----0-2p0-2p0-2p0-2p0-2p0-2p0-2p0--------|
[------------------------------------------|
[------------------------------------------|
[------------------------------------------|

 Guitar 1
 [---------------PM----------------]
[---------------------------------------|
[---------------------------------------|
[-2-2-2-2-2-2-2-2-2-2-2-2--2--2--2--2---|
[-2-2-2-2-2-2-2-2-2-2-2-2--2--2--2--2---|
[-0-0-0-0-0-0-0-0-0-0-0-0--0--0--0--0---|
[---------------------------------------|
[Guitar 2
[         ~~~~~~~~~~~~~~   Pick scrape
[---------5---5---5---5-----------------|
[-------5-5-5-5-5-5-5-5-----------------|
[-------7b--7b--7b--7b--7b--------------|
[---------------------------\-\---------|
[----------------------------\-\--------|
[---------------------------------------|

                                                     PM
|------------------------------------------------------|
|------------------------------------------------------|
|------------------------------------------------------|
|-4-4----5-5--5-7-7----9-9-9-9-9-9-9-9-9-9-9-9-9-9-9---|
|-2-2----3-3--3-5-5----7-7-7-7-7-7-7-7-7-7-7-7-7-7-7---|
|----------------------0-0-0-0-0-0-0-0-0-0-0-0-0-0-0-0-|

                            [--PM--]  [PM] [--PM--]  [PM]
|------------------------------------------------------------|
|------------------------------------------------------------|
|------------------------------------------------------------|
|-----------------------------------2--------------2---------|
|--5--5-5-5-5-5-5-5-5-5-5-5---------2--------------2-----x---|
|--3--3-3-3-3-3-3-3-3-3-3-3-0-0-0-0-0-0-0--0-0-0-0-0-0-0-x---|


|------------------------------------------------------------|
|------------------------------------------------------------|
|------------------------------------------------------------|
|------------------------------------------------------------|
|--5--5-5-5-5-5-5-5-5-5-5-5-5-7777-5-7777-5-7777-------5-6-7-|
|--3--3-3-3-3-3-3-3-3-3-3-3----------------------5-6-7-------|


|------------------------------------------------------------|
|------------------------------------------------------------|
|------------------------------------------------------------|
|------------------------------------------------------------|
|-7777-5-7777-5-7777-------5-6-7-7777-5-7777-5-7777-------5--|
|--------------------5-6-7--------------------------5-6-7----|


|---------------------|
|---------------------|
|-----------------9\--|
|-----------------9\--|
|-------5-------5-7\--|
|-5-6-7---5-6-7-------|



END

Добавлено: 21.05.2012
Другие материалы по этой песне:
  • Аккорды и текст

Страница создана 01.05.2012
http://primanota.ru/entombed/state-of-emergency-chords.htm
Привет, Гость.
Предлагаем пройти революционный курс по гитаре.
Подарок от PrimaNota.Ru, забирай!