PrimaNota.ru - самый крупный в мире бесплатный архив песенных текстов, аккордов, табулатур и нот


Emarosa - Armageddon - текст песни, таба, видео

Регистрация Запомнить меня
Войти через:  Facebook Google Twitter Vk Yandex Mail.ru

Emarosa - Armageddon - текст песни, таба, видео

Печатать
Просмотров: 223
Title: Armageddon
Artist: Emarosa
Tabbed by: June Sayama
Tuning: D A D G B E

Intro/verse: 
E|-------------------------|
B|---------44--------------|
G|---------77--------------|
D|-000-8\-0--0-2/3-0-0-0-0-|
A|-000-8\-0--0-2/3-0-5/3-1-|
D|-000-8\-0--0-2/3-0-0-0-0-|\
   ...    .  .     .         do the whole thing 3 times
E|-------------------------|/
B|---------44----------13--|
G|---------77----------10--|
D|-000-8\-0--0-2/3-3-0-----|
A|-000-8\-0--0-2/3-3-0-----|
D|-000-8\-0--0-2/3-3-0-----|
   ...    .  .       .

E|-----------------------|
B|----------------(5)----|
G|--------------(5)-(5)--|
D|-000-000-00--(5)---(5)-|
A|-000-000-00-(5)--------|
D|-000-000-00------------|
   ..  ..  .

E|------------------|
B|----(5)---(5)-(5)-|
G|----(5)---(5)-(5)-|
D|-00-(5)00-(5)0(5)-|
A|-00----00----0----|
D|-00----00----0----|
   ..    ..    .

E|-----------------------|
B|-----------------------|
G|-----------------------|
D|-----32----53023-------| do 3 times
A|-0320--0230------------|
D|-----------------------|

Then
E|-----------------------|
B|-----------------------|
G|-----------------------|
D|-----32023-------------|
A|-0320-----023031-------|
D|-----------------------|

E|------------------------------|
B|------------------------------|
G|------------------------------|
D|-0--3-5--7-8/9-9-----3-----5--|
A|-0--3-5---------9---1-1-1/3-3-|
D|-0--3-5-----------------------|

E|-------------------------|
B|-------------------------|
G|-----------------(5)-----|
D|-5-5-5-5-5-555-5---(5)---|
A|-5-5-5-5-5-555-5-----(5)-|
D|-5-5-5-5-5-555-5---------|
   . . . . . ... .

E|----------------------------------|
B|----------------------------------|
G|----------------------------------|
D|-7777-7777-7-7777h8888-8888-8-888-|
A|-7777-7777-7-7777h8888-8888-8-888-|
D|-7777-7777-7-7777h8888-8888-8-888-|

E|--------------------------|
B|--6\4-4/5---6\4-4/5~------|
G|--9\7-7/8---9\7-7/8~------|
D|-0---0---000---0----0~-0~-|
A|-0---0---000---0----0~-0~-|
D|-0---0---000---0----0~-0~-|
   .   .   ...   .    .  .

E|----------------------------------|
B|----------------------------------|
G|----------------------------------|
D|-77777777-88888888--3p2-5p3-7p5-8-|
A|-77777777-88888888----------------|
D|-77777777-88888888-0---0---0---0--|
                     .   .   .   .

E|-------------------------------|
B|-------------------------------|
G|-------------------------------|
D|-77-777-777/1010-101010-101010-|
A|-77-777-777/8-8--8-8-8--8-8-8--|
D|-77-777-777/8-8--8-8-8--8-8-8--|

E|---------------------|---|
B|---------------------|---|
G|----do 2 times-------|---|
D|-00-00-00-0-000-0-000|-0-|
A|-00-00-00-0-000-0-000|-0-|
D|-00-00-00-0-000-0-000|-0-|
   .  .  .  . ... . ...

E|--------------------------------------|
B|---------------------------8----------|
G|---------------------------11---------|
D|-7/8-7\5-7-0-0-0-000570870----0-8-0-0-|
A|-7/8-7\5-7-0-0-0-000570870----0-8-0-0-|
D|-7/8-7\5-7-0-0-0-000570870----0-8-0-0-|
                   ...  .  .    .   . .

E|---------------------------------|
B|---------------------------------|
G|---------------------------------|
D|-7/8-7\5-7-0-57-0-7/8-7\5-7-0----|
A|-7/8-7\5-7-0-57-0-7/8-7\5-7-0----|
D|-7/8-7\5-7-0-57-0—7/8-7\5-7-0-/\-|

E|---------------------------------|
B|---------------------------------|
G|---------------------------------|
D|-7/8-7\5-7-0-57-0-7/8-7\5-7-0----|slide
A|-7/8-7\5-7-0-57-0-7/8-7\5-7-0----|slowly
D|-7/8-7\5-7-0-57-0—7/8-7\5-7-0-/--|

E|-(do 3 times)---|-----------------|
B|---6------------|-----------------|
G|---9------------|-----------------|
D|-0---0-5-5h7-8--|-99999999-888777-|
A|-0---0-5-5h7-8--|-99999999-888777-|
D|-0---0-5-5h7-8--|-99999999-888777-|
Do whole thing twice

E|-----------------------------------|
B|---6----6----6---88888888-55555555-|
G|----3----3----3--xxxxxxxx-xxxxxxxx-|
D|-0----0----0-----55555555-22222222-|
A|-0----0----0-----------------------|
D|-0----0----0-----------------------|

E|-----------------------------------|
B|---6----6----6---66666666-888-555--|
G|----3----3----3--33333333-xxx-xxx--|
D|-0----0----0--------------555-222--|
A|-0----0----0-----------------------|
D|-0----0----0-----------------------|

E|-------------------------|
B|-------------------------|
G|-------------------------|
D|-8888-10101010-7777-8888-|
A|-8888-10101010-7777-8888-|
D|-8888-10101010-7777-8888-|

E|---------------------------------|
B|---------------------------------|
G|---------------------------------|
D|-10101010-12121212-7777-10101010-|
A|-8-8-8-8--10101010-7777-8-8-8-8--|
D|-8-8-8-8--10101010-7777-8-8-8-8--|

E|------|---------------------------------|
B|------|---------(do 2 times)------------|
G|------|-10101010-12121212-9999-10101010-|
D|-0000-|-8-8-8-8--10101010-7777-8-8-8-8--|
A|-0000-|-8-8-8-8--10101010-7777-8-8-8-8--|
D|-0000-|-8-8-8-8--10101010-7777-8-8-8-8--|
		In the 2nd time, put some stops
			in between strums

Outro:
E|---------------------------------------|
B|---6----6----6---88888888-55555555-----|
G|----3----3----3--xxxxxxxx-xxxxxxxx-----|
D|-0----0----0-----55555555-22222222-0~--|
A|-0----0----0-----------------------0~--|
D|-0----0----0-----------------------0~--|

Добавлено: 06.04.2012
Другие материалы по этой песне:
  • Аккорды и текст

Страница создана 06.04.2012
http://primanota.ru/emarosa/armageddon-chords.htm
Привет, Гость.
Предлагаем пройти революционный курс по гитаре.
Подарок от PrimaNota.Ru, забирай!