PrimaNota.ru - самый крупный в мире бесплатный архив песенных текстов, аккордов, табулатур и нот


Emarosa - Epoch Coda - текст песни, таба, видео

Регистрация Запомнить меня
Войти через:  Facebook Google Twitter Vk Yandex Mail.ru

Emarosa - Epoch Coda - текст песни, таба, видео

Печатать
Просмотров: 224
Уроки эстрадного вокала в Санкт-Петербурге
http://www.myspace.com/emarosaband

{intro}
|----------------------------------------------------------------------|
|----------------------------------------------------------------------|
|-------7-7-7\-141414141414141414141414----7-7-7-\141414141414-14\-15--|
|-------x-x-x---x-x-x-x-x-x-x-x-x-x-x-x----x-x-x---x-x-x-x-x-x--x---x--|
|--12/--5-5-5\-121212121212121212121212----5-5-5-\121212121212-12\-13--|
|--12/--0-0-0\--0-0-0-0-0-0-0-0-0-0-0-0----0-0-0-\-0-0-0-0-0-0--0\--0--|
(only slide down from 12 first time)

-------------------------------------------------|
-------------------------------------------------|
-------------------------------------------------|
-8-8-8-8p7---8p7---8p7----8-8-8--8p7---8p7---8*--|
-8-8-8----10----10----10--8-8-8-----10----10-----|
-8-8-8--------------------8-8-8------------------| X2(all that)

then its like

|--------------------------------------------------------------|
|--------------------------------------------------------------|
|-10-1010-101010--101010-101010--101010t-e-n-t-e-n--t-e-n------|
|--x--xx---x-x-x--x-x-x--x-x-x----8-88-8-8-8-8-8-8--8-8-8------|
|--8--88---8-8-8--8-8-8--8-8-8----8-88-8-8-8-8-8-8--8-8-8------|
|---------------------------------8-88-8-8-8-8-8-8--8-8-8-[X2]-|

and end on
-------------------------------------------|
-----xx-x-xx-x-xx-x-xx------5*-------------|
--7--xx-x-xx-x-xx-x-xx--5*---5*--5*----5*--|
--5--xx-x-xx-x-xx-x-xx--5*----5*--5*---5*--|
--5--xx-x-xx-x-xx-x-xx--5*-----5*------5*--|
--5--xx-x-xx-x-xx-x-xx--0*-------------0---|
Добавлено: 22.06.2012
Другие материалы по этой песне:
  • Аккорды и текст

Страница создана 13.04.2012
http://primanota.ru/emarosa/epoch-coda-chords.htm
Привет, Гость.
Предлагаем пройти революционный курс по гитаре.
Подарок от PrimaNota.Ru, забирай!