PrimaNota.ru - самый крупный в мире бесплатный архив песенных текстов, аккордов, табулатур и нот


Emarosa - Casablanca - текст песни, таба, видео

Регистрация Запомнить меня
Войти через:  Facebook Google Twitter Vk Yandex Mail.ru

Emarosa - Casablanca - текст песни, таба, видео

Печатать
Просмотров: 252
Title: Casablanca
Artist: Emarosa
Tabbed by: June Sayama
Tuning: D A D G B E


E|-------------------------------|
B|-66666666-6666666-----6666666--|
G|-77777777-7777777-----7777777--|
D|-00000000-0000000-0-0-00000000-|
A|-00000000-0000000-0-0-00000000-|
D|-00000000-0000000-0-0-00000000-|

Guitar 2
E|-----------------------------------------|
B|-6666666---------------------------------|
G|-7777777----------7~/10~/15~--7~/17~\15~-|
D|-0000000-0-0-0-0-0x--x---x----x--xx--xx--|
A|-0000000-0-0-0-0-05~/8~-/13~--5~/15~\13~-|
D|-0000000-0-0-0-0-0-----------------------|
                   .
Guitar 1: just do this
E|-------------------|
B|-------------------|
G|-------------------|
D|-0~---0~---0~---0~-|
A|-0~---0~---0~---0~-|
D|-0~---0~---0~---0~-|

Guitar 2
E|-----------------------------------------------|
B|-----------------------------------------------|
G|-7777-1010-151515151515-7777-1717-151515151515-|
D|-xxxx-xxxx-xxxxxxxxxxxx-xxxx-xxxx-xxxxxxxxxxxx-|
A|-5555-8-8--131313131313-5555-1515-131313131313-|
D|-----------------------------------------------|

Guitar 1
E|-------------------------------------|
B|-------------------------------------|
G|-77777777----------------------------|
D|-77777777-88888888-00000000-88888888-|
A|-55555555-88888888-00000000-88888888-|
D|----------88888888-00000000-88888888-|

E|-------------------------------------|
B|-------------------------------------|
G|-------------------------------------|
D|-12/-12-12/-00000-12/-0-12-12/-00000-|
A|-12/-12-12/-00000-12/-0-12-12/-00000-|
D|-12/-12-12/-00000-12/-0-12-12/-00000-|

E|-------------------------------------------|
B|-------------------------------------------|
G|-------------3/5-2-------------------------|
D|-0------2h3p0-----3/5-0-3-0750750707507507-|
A|-0-5p3p0-----------------------------------|
D|-0-----------------------------------------|
   .

Continuation
E|-------------------------------------|
B|-------------------------------------|
G|------------------------3/5-2--------|
D|-0870870808708708----320-----3/5-0-3-|
A|-----------------0230----------------|
D|-------------------------------------|
                                   .

Continuation
E|----------------------------------|
B|----------------------------------|
G|----------------------------------|
D|-55555555-555555588888888-8888888-|
A|----------------------------------|
D|----------------------------------|
   ........ ............... .......

Continuation
E|----------------------------------|
B|----------------------------------|
G|----------------------------------|
D|-88877788877788778887778887778877-|
A|----------------------------------|
D|----------------------------------|
   ................................

E|---------------------------------------------|
B|-66666666-66666666---------------------------|
G|-77777777-77777777-3/7/10-3/7/10/15-14-15-14-|
D|-77777777-77777777-x-x-xx-x-x-xx-xx-xx-xx-xx-|
A|-55555555-55555555-1/5/8--1/5/8-/13-12-13-12-|
D|---------------------------------------------|

E|-------------------------------|
B|-13-11-13-15-17-18-17-15-13-11-|
G|-xx-xx-xx-xx-xx-xx-xx-xx-xx-xx-|
D|-10-8--10-12-14-15-14-12-10-8--|
A|-------------------------------|
D|-------------------------------|
Just figure out the timing of the switching

E|-------------------|
B|---5---10---5---10-|
G|---8---13---8---13-|
D|-0---0----0---0----|
A|-0---0----0---0----|
D|-0---0----0---0----|

Do this part 2 times
E|------------------------------------------------------|
B|------------------------------------------------------|
G|------------------------------------------------------|
D|-8888888888888888121212777101010888778555555555555555-|
A|------------------------------------------------------|
D|------------------------------------------------------|
   ....................................................

Continuation
E|-------------------------------------------|
B|-------------------------------------------|
G|-77777777-101010-999-777-99999999-55555555-|
D|-55555555-8-8-8--777-555-77777777-33333333-|
A|-----------------777-555-77777777-33333333-|
D|----------------------------------33333333-|

E|-------------------------------------------------------|
B|---------------4p3-3h4h5-4p3-3h4h5-4p3-3h4h5-4p3-3h4h5-|
G|-121212121212------------------------------------------|
D|-xxxxxxxxxxxx------------------------------------------|
A|-101010101010------------------------------------------|
D|-------------------------------------------------------|

E|---------------------|
B|-------15\(w/ delay)-|
G|---------------------|
D|-0-000---------------|
A|-0-000---------------|
D|-0-000---------------|

Do this part 2 times
E|------------------------------------------|
B|------------------------------------------|
G|-7-10-7-10-7-10-7-10-15-17-15-17-14-12-10-|
D|-x-xx-x-xx-x-xx-x-xx-xx-xx-xx-xx-xx-xx-xx-|
A|-5-8--5-8--5-8--5-8--13-15-13-15-12-10-8--|
D|------------------------------------------|
Just figure out the time when to switch

Then
E|-------------------|
B|---5---10---5---10-|
G|---8---13---8---13-|
D|-0---0----0---0----|
A|-0---0----0---0----|
D|-0---0----0---0----|

Outro:
E|---------------------------|--------------|
B|-------11------10----8---8-|-----16----16-|
G|-----12------12----10---7--|---15----15---|
D|---12------12-----8----5---|-13----13-----|
A|-10------10------6----5----|--------------|
D|---------------------------|--------------|
    |(Do 2 times; 2 each)|

Добавлено: 30.03.2012
Другие материалы по этой песне:

Страница создана 30.03.2012
http://primanota.ru/emarosa/casablanca-chords.htm
Привет, Гость.
Предлагаем пройти революционный курс по гитаре.
Подарок от PrimaNota.Ru, забирай!