PrimaNota.ru - самый крупный в мире бесплатный архив песенных текстов, аккордов, табулатур и нот


Emarosa - I Am Waves - текст песни, таба, видео

Регистрация Запомнить меня
Войти через:  Facebook Google Twitter Vk Yandex Mail.ru

Emarosa - I Am Waves - текст песни, таба, видео

Печатать
Просмотров: 191
Уроки эстрадного вокала в Санкт-Петербурге
I Am Waves
By:Emarosa♥
Album:This Is Your Way Out
☺
this is one cool song from a very cool band. It's not yet complete and at some point,
are parts that i guess ain't correct. I just included some parts that somehow sounds close
the real thing. Hope this tab could help you guys, or if not, somehow drive you to 
the CORRECT tab.^^

The stuff i played is in standard, but i think it'll be cool if you guys ♫ post a
D version..^^
And there are parts here that may be a little off, so, i thought you could distribute it
2 guitars..^^

(0:05)                (0:09)
|---------------------|---------------|
|---------------------|---------------|
|---------------------|---------------|
|-222222-22-222222-22-|--------7-9-10-|
|-222222-22-222222-22-|-7-9-10--------|
|-000000-00-000000-00-|---------------|

(0:14)    (0:15)                (0:20)
|---------|---------------------|---------------|
|-----15/-|---------------------|---------------|
|---------|---------------------|---------------|
|-xx------|-222222-22-222222-22-|--------7-9-10-|
|-xx------|-222222-22-222222-22-|-7-9-10--------|
|-xx------|-000000-00-000000-00-|---------------|

(0:25)          (0:34)
|---------------|-----------------------------------|
|-6-6---9/--6-6-|----66----66----6----66----66----6-|
|-9-9--12/--9-9-|----99----99----9----99----99----9-|
|---------------|-22----22----22---22----22----22---| continue...
|---------------|-22----22----22---22----22----22---|
|---------------|-00----00----00---00----00----00---|

continued...
|-------------------------------------12/-|--------------|
|-----9-9-----9-9-----9-9----12121212-15/-|--------------|
|----1212----1212----1212----15151515-----|--|next part|-|
|-22------22------22------22--------------|--| missing |-|
|-22------22------22------22--------------|--------------|
|-00------00------00------00--------------|--------------|

(0:49)          (0:53)                      (0:59)
|---------------|--------|------------------|---------------|
|---------------|----15/-|------------------|---------------|
|---------------|--------|------------------|---------------|
|--------7-9-10-|-xx-----|-2~-222222-2~-222-|--------7-9-10-|
|-7-9-10--------|-xx-----|-2~-222222-2~-222-|-7-9-10--------|
|---------------|-xx-----|-0~-000000-0~-000-|---------------|

(1:02)  (1:09)
|-------|-13--13--13--13---13-----------------------------------------------|
|-------|---11--11--11--11---111111111111111(those are lots of 11s)----(15)-|
|-------|-------------------------------------------------------------------|
|-22-2~-|-----------------------------------------------------------22------|
|-22-2~-|-----------------------------------------------------------22------|
|-00-0~-|-----------------------------------------------------------00------|
  ..                                                                ..

(1:14)
|------------------------------------------|
|------------------------------------------|
|-------------------------(these are 10s )-|
|-7777777777777777999999991010101010101010-|
|------------------------------------------|
|------------------------------------------|

(1:19) im not sure if that's the exact part, my copy jumps at this point..^^
|--------------------------------------|
|----66----66-----9/----66----66----66-|
|----99----99----12/----99----99----99-|
|-22----22----22-----22----22----22----|
|-22----22----22-----22----22----22----|
|-00----00----00-----00----00----00----|

(1:24)
|------------------------------------------|
|------------------------------------------|
|-------------------------( 10s again... )-|
|-7777777777777777999999991010101010101010-|
|------------------------------------------|
|------------------------------------------|

(1:29)
|--------------------------------------|
|----66----66-----9/----66----66----66-|
|----99----99----12/----99----99----99-|
|-22----22----22-----22----22----22----|
|-22----22----22-----22----22----22----|
|-00----00----00-----00----00----00----|

(1:33)
|----------------------|
|----------------------|
|----------------------|
|--4----6----8----10---|
|--4----6----8----10---|
|--2----4----6----8----|

(1:36)the Kick-ass part...^^
|---------------------------------------------------------|
|---------------------------------------------------------|
|---------------------------------------------------------|
|---------------------------------------------------------| continue...♥
|-----------------------------------------------------5---|
|-0-0h6-0h5-0h3-0-0h6-0h5-0h3b--0-0h6-0h5-0h3-0-5h6h7-----|

continued... ♪                                    (1:48) [not sure▼ ^^]
|-------------------------------------------------|--------------12/---|
|-------------------------------------------------|--------------15/---|
|-------------------------------------------------|--------------------|
|-------------------------------------------------|-2-2-22-2222--------|
|-------------------------------------------------|-2-2-22-2222--------|
|-0-0h6-0h5-0h3-0-0h6-0h5-0h3b-0-0h6-0h5-0h3-0h6~-|-0-0-00-0000--------|

(1:51)                                         (1:54)
|-----------------------------------------------12/---12/-|
|-------------------------6-------------------------------|
|-------------------------9-------------------------------|
|---------------------------------------------------------|
|---------------------------------------------------------|
|-0h5h6-0h3h5-0h5h6-0h3p0---0h5h6-0h3h5-0h3p0-0-----0-----|

then...[parts with ? are ghost parts..]       (2:00)
|----------------------------------------------- ? ----12/-|
|-------------------------6--------------------- ? --------|
|-------------------------9--------------------- ? --------|
|----------------------------------------------- ? --------|
|----------------------------------------------------------|
|-0h5h6-0h3h5-0h5h6-0h3p0---0h5h6-0h3h5-0h3p0-0-----0------|

[ghost parts are parts I haven't figured out yet.. help me with them, please..^^]
(2:01)             (2:08) ▼not sure here..^^
|----12/---- ? ---[-------(6)-(10)--]---|
|----15/---- ? ---[-(5)(6)----------]---|
|----------- ? ---[-----------------]---|
|-2~-----2~-----2~----------------------|
|-2~-----2~-----2~----------------------|
|-0~-----0~-----0~----------------------|

(2:11)                            [do this part ▼ twice..]
|---------------------------------|----------------------|
|---------------------------------|-66-66-6--9-9--9-9--9-|
|---------------------------------|-99-99-9-1212-1212-12-|
|-2222-22-2222-2-2~--/ then do  \-|----------------------|
|-2222-22-2222-2-2~--/ a slide  \-|----------------------|
|-0000-00-0000-0-0~--/to and fro\-|----------------------|

(2:32)                           (2:42)
|-----   -----   ----   ----   --|---- ? ----? slightly ?---- ? --|
|-----   -----   ----   ----   --|---- ? ----?   lower  ?---- ? --|
|----- ? ----- ? ---- ? ---- ? --|---- ? ----?than other?---- ? --|
|-22-- ? -22-- ? -22- ? -22- ? --|-2~-----2~--------------2~------|
|-22-- ? -22-- ? -22- ? -22- ? --|-2~-----2~--------------2~------|
|-00--   -00--   -00-   -00-   --|-0~-----0~--------------0~------|

(2:49)             end on..
|--------------|    |----|
|--------------|    |----|
|--------------|    |----|
|-22222222222--|    |-2~-|
|-22222222222--|    |-2~-|
|-00000000000--|    |-0~-|

_____________________________________________________________________________

Sorry, but I found out that my guitar was a fret lower than standard tuning when i
this stuff out.. So you'll have to re-assess the whole thing..
sorry.. I'll update the stuff later.. :c
Добавлено: 02.04.2012
Другие материалы по этой песне:
  • Аккорды и текст

Страница создана 15.03.2012
http://primanota.ru/emarosa/i-am-waves-chords.htm
Привет, Гость.
Предлагаем пройти революционный курс по гитаре.
Подарок от PrimaNota.Ru, забирай!