PrimaNota.ru - самый крупный в мире бесплатный архив песенных текстов, аккордов, табулатур и нот


Emarosa - Ill Just Wait - аккорды и текст, видео

Регистрация Запомнить меня
Войти через:  Facebook Google Twitter Vk Yandex Mail.ru

Emarosa - Ill Just Wait - аккорды и текст, видео

Печатать
Просмотров: 128
Ill Just Wait
Emarosa
Tuning: E (e B G D A E)

I've added some picking from song because it's sounds better for me. 
By the way, you can combine picking and strumming through all song if you want.

******************************************************************************

 C                     C                         Am              F
-----------------------------------------------------------------------------|
-----------------------1-----------------------------------------------------|
-----------------------------------------------------------------------------|
--2--2--2--2--2--2--3~---3-2--2--2--2--2--2--2--0--2--2--2--2--2--2--2--0----|
-3--3--3--3--3--3--3---------3--3--3--3--3--3--3--0--0--0--0--0------------3-|
-----------------------------------------------------------------1--1--1--1--|

C             C                    C
I can be the way you wanted me to be
            Am            F              C
But you're leaving and I miss you, you know
                  C                         C
You could be the mountains, I could be the sea
                  Am                     F              C
'Cause I've been tearing us apart but I miss you, you know


                F                     Am                             
Talking in your sleep when you're all alone
            F               Am
Waiting on me to come back home
G              F           Am
I can see you walking far away
               G
I don't know how,

So I'll just wait


 C                  G                  Am                  F
-----------------------------------------------------------------------------|
-8------------------8------------------------8-------------------------------|
----7--9---------------7--9------------5--7-----9----7-----5-----------------|
-----------------------------------------------------------------------------|
-----------------------------------------------------------------------------|
-----------------------------------------------------------------------------|


         C
Are you happy?
         C
Are you happier?
            G                                Am
Yeah, you know me, all the years I've been around
                             F
And the fears that you found out but

I'm still waiting


 C                     C                       
-----------------------------------------------------------------------------|
-----------------------1-----------------------------------------------------|
-----------------------------------------------------------------------------|
--2--2--2--2--2--2--3~---3-2--2--2--2--2--2--2-------------------------------|
-3--3--3--3--3--3--3---------3--3--3--3--3--3--------------------------------|
-----------------------------------------------------------------------------|

              C                           C
I was half a man, you needed one that's whole
                 Am                   F              C
But I was giving everything 'cause I miss you, you know


                F                     Am                             
Talking in your sleep when you're all alone
            F               Am
Waiting on me to come back home
G              F           Am
I can see you walking far away
               G
I don't know why


         C
Are you happy?
         C
Are you happier?
            G                                Am
Yeah, you know me, all the years I've been around
                              F
And the fears that you found out but

I'm still waiting you


C  C

                C                       C
You believe in faith and I believe in truth
          Am              F           C
But I'm praying 'cause I miss you, I do
                       F                    Am
I'm talking in your sleep when you're all alone
            F               Am
Waiting on me to come back home
G              F            Am                 G
I can see you walking far away, I don't know why
                      C
So I'll just wait
Добавлено: 11.08.2015
Вам также может быть интересно:
Другие материалы по этой песне:

Страница создана 11.08.2015
http://primanota.ru/emarosa/ill-just-wait-chords.htm
Привет, Гость.
Предлагаем пройти революционный курс по гитаре.
Подарок от PrimaNota.Ru, забирай!