PrimaNota.ru - самый крупный в мире бесплатный архив песенных текстов, аккордов, табулатур и нот


Dokken - Jaded Heart - текст песни, таба, видео

Регистрация Запомнить меня
Войти через:  Facebook Google Twitter Vk Yandex Mail.ru

Dokken - Jaded Heart - текст песни, таба, видео

Печатать
Просмотров: 145
Song:Jaded Heart
Artist:Dokken
Album:Under Lock And Key
Tuning:Half Step Down

Legend
------

h  = hammer-on
p  = pull-off
b  = bend
r  = bend release
/  = slide up/down
<5> = natural harmonic
[5] = artifical harmonic
~  = vibrato
tr = trill

                                             w/ fill #1

Eb|-------------------|-------------------------|------------------|-----|
Bb|--------1h3--1-----|---5h6-5-----------------|-------1h3--1-----|---3h|
Gb|------0-0------0---|---5------7--7-5-7/9\7-5-|-----0-0------0---|---5-|
Db|----2------------2-|----------5--5-5-5/7\5---|---2------------2-|-----|
Ab|--0----------------|-0-----------------------|-0----------------|-0---|
Eb|-------------------|-------------------------|------------------|-----|



Eb|---------------|------------------|-----------------------|---------|
Bb|-5-3h5-3-------|-------1h3--1-----|----5h6-5--------------|-------1h|
Gb|---5---2-------|-----0-0------0---|----5------7-5-7/9\7-5-|-----0-0-|
Db|-------0-------|---2------------2-|-----------5-5-5/7\5---|---2-----|
Ab|---------------|-0----------------|--0--------------------|-0-------|
Eb|---------------|------------------|-----------------------|---------|



Eb|----------|---0---0------5-------|-------------------|---------------|
Bb|-3--1-----|---5h6-5h6-3----------|--------1h3--1-----|---5h6-5-------|
Gb|------0---|---7---7---2----------|------0-0------0---|---5-----7---7\|
Db|--------2-|-----------0----------|----2------------2-|---------5---5\|
Ab|----------|-0--------------------|--0----------------|-0-------------|
Eb|----------|----------------------|-------------------|---------------|

       w/ Fill #2

Eb|--------------------|---------0------------|----------------------|
Bb|---------1h3--1-----|---3/5/7-3------------|--------1h3--1--------|
Gb|-------0-0------0---|---5-----2------------|------0-0------0------|
Db|-----2------------2-|---------0------------|----2------------2----|
Ab|---0----------------|-0--------------------|--0-----------------0-|
Eb|--------------------|----------------------|----------------------|

                                                 w/ Fill #3

Eb|-0---0-----------------|------------------|------------0---0--------|
Bb|-5h6-5-----------------|-------1h3--1-----|---3h5-3-3----3----------|
Gb|-------7---7-5-7/9\7-5-|-----0-0------0---|---5-----2---------------|
Db|-------5---5-5-5/7\5---|---2------------2-|---------0---------------|
Ab|-----------------------|-0----------------|-0---------------------0-|
Eb|-----------------------|------------------|-------------------------|



Eb|----------------|----------------------|------------------|---------|
Bb|-----1h3--1-----|---5h6-5--------------|-------1h3--1-----|---3h5-3-|
Gb|---0-0------0---|---5-----7--5-7/9\7-5-|-----0-0------0---|---5-----|
Db|-2------------2-|---------5--5-5/7\5---|---2------------2-|---------|
Ab|----------------|-0--------------------|-0----------------|-0-------|
Eb|----------------|----------------------|------------------|---------|

                        Pre Chorus (play twice)

Eb|--------------|--------------------|---------------|--------------|
Bb|-3------------|-*------------------|--------3--3--*|---10/-12--13-|
Gb|-2------------|----5~--5--7/-9--7--|--(7)---2--2---|---10/-12--14-|
Db|-0------------|----5~--5--7/-9--7--|--(7)---0--0---|---10/-12--15-|
Ab|-----12\------|-*--3~--3--5/-7--5--|--(5)---------*|----8---------|
Eb|--------------|--------------------|--------2--2---|--------------|

                                   Chorus

Eb|-----|-----------------------|------------------------|--------------|
Bb|--12-|-(12)---12\------------|------------------------|--------------|
Gb|--12-|-(12)---12\--5---------|--------------0h2-2-2~--|---------7----|
Db|--12-|-(12)---12\--5---5-----|--5/7-7-7-7---0h2-2-2~--|-5/7-7-7-7----|
Ab|--10-|-(10)---10\--3---2-----|--5/7-7-7-7-------------|-5/7-7-7-5--3-|
Eb|-----|-----------------------|--3/5-5-5-5-------------|-3/5-5-5------|



Eb|-----------|-------------------|-------------|----------------------|
Bb|-----------|-------------------|-------------|----------------------|
Gb|-----------|-------------------|-------------|--------------0h2-2-2~|
Db|-----------|-5/7-7-7-7-----14\-|-5/7-7-7-7---|--5/7-7-7-7---0h2-2-2~|
Ab|-2h3h2-----|-5/7-7-7-7-----12\-|-5/7-7-7-7---|--5/7-7-7-7-----------|
Eb|-------3-0-|-3/5-5-5-5---------|-3/5-5-5-5---|--3/5-5-5-5-----------|

                                            Repeat intro section and 
                                            use this as ending

Eb|--------------------------|-----------|-------------------------|
Bb|--------------------------|-3---3-----|-0-------0---0---0---0---|
Gb|-------------7------------|-0---0---2-|---0---5---5---5---5---5-|
Db|---5/7-7-7-7-7------------|-0---2---2-|-----3-------------------|
Ab|---5/7-7-7-7-5--3-2h3h2---|-----3---0-|-------------------------|
Eb|---3/5-5-5-5------------3-|-3---------|-------------------------|



Eb|------------------|--------------------|------------------|-------0-|
Bb|-------1h3--1-----|---5h6-5------------|-------1h3--1-----|---3h5---|
Gb|-----0-0------0---|---5-----7---7/9\7--|-----0-0------0---|---5-----|
Db|---2------------2-|---------5---5/7\5--|---2------------2-|---------|
Ab|-0----------------|-0------------------|-0----------------|-0-------|
Eb|------------------|--------------------|------------------|---------|



Eb|-----5--|------------------------|-------------------|--------------|
Bb|-3---3--|-------------1h3--1-----|---5h6-5--------8--|-------1h3--1-|
Gb|-2---2--|-----------0-0------0---|---5-----7--7/9-7--|-----0-0------|
Db|-0------|---------2------------2-|---------5--5/7----|---2----------|
Ab|--------|-------0----------------|-0-----------------|-0------------|
Eb|--------|------------------------|-------------------|--------------|

                                   2nd Pre Chorus

Eb|-----|-----------------------|---------------|--------3------|------|
Bb|-----|---3h5-3-3-------------|-------------3-|--------3---0--|------|
Gb|-0---|---5-----2-------------|--5~------0--2-|--------0---0--|--5~--|
Db|---2-|---------0---14\-------|--5~--5---0--0-|--------0---0--|--5~--|
Ab|-----|-0-----------12\-------|--3~--2--------|---------------|--3~--|
Eb|-----|-----------------------|----------3----|--0--2--3---3--|------|

                                                             After Chorus 
                                                             play this

Eb|---------------|----------------|---------------3--------|---3---3--|
Bb|---------------|----1---3-------|------1--------3--------|---3---3--|
Gb|-5--------2----|----2-2-2-------|----0----------0---5----|---0---0--|
Db|-5--5--5--2----|--2-----0-------|---------------0---5--5-|---0---2--|
Ab|-3--2--3--0--0-|------------0-2-|--3~----2~---------3--2-|-------3--|
Eb|---------------|----------------|-----------0-2-3--------|---3------|

                                              Solo

Eb|-------|-------------------|-----------------------------------------|
Bb|--3----|-----------------3-|-----------------------------------------|
Gb|--2----|-----------------2-|-------------2-----------5~---5-7-9-7~---|
Db|--0----|--3--2--0--------0-|-------------2-------------------------5h|
Ab|-------|-----------3--0----|--3-2-0------0---------------------------|
Eb|-------|-------------------|--------3--0----x-x-12\------------------|



Eb|------------5-7-8~8h5-10---10--------10---10~-------12-13~-----19b21-|
Bb|----------5--------------8-------8\7----7--------15----------x-------|
Gb|-------7~-------------------------------------14-----------x---------|
Db|-4-5h4---------------------------------------------------------------|
Ab|---------------------------------------------------------------------|
Eb|---------------------------------------------------------------------|



Eb|--r19~------17---17b19---17-15--15~------15-13h12--------13-12h13-12-|
Bb|--------------------------------------------------13-----------------|
Gb|-----------------------------------------------------14--------------|
Db|---------------------------------------------------------------------|
Ab|---------------------------------------------------------------------|
Eb|---------------------------------------------------------------------|

                                                              End of song

Eb|----13-12-------------------------------------------------|-----------|
Bb|-15-------15-12-15--14h13-12----13--12h10----12--10-------|-------1h3-|
Gb|-----------------------------14-----------12--------12h10-|-----0-0---|
Db|----------------------------------------------------------|---2-------|
Ab|----------------------------------------------------------|-0---------|
Eb|----------------------------------------------------------|-----------|

                     Bounce pick up string Fill #1 Fill #2 
                     (Muted with delay) Fill #3

Eb|--------|---------x-x-x-x-x/-|-15--(18)-|-8-7-5-----7-5-------|-22b24-|
Bb|--1-----|-3-5-5-3------------|----------|-------8-6-----8-6-5-|-------|
Gb|----0---|-2-2-2-2------------|----------|---------------------|-------|
Db|------2-|-------0------------|----------|---------------------|-------|
Ab|--------|--------------------|----------|---------------------|-------|
Eb|--------|--------------------|----------|---------------------|-------|



Eb|-(24)--r(22)-|
Bb|-------------|
Gb|-------------|
Db|-------------|
Ab|-------------|
Eb|-------------|


LYRICS:

I didn't know you, but I could see it in your eyes
Shattered dreams and hopes, you'd been hurt too many times
Well I've heard your past from a friend I'd seen today
Told me of your heart, that you had been away

How I wish I could take you away
I would show you that my love's not the same
But I see I've found you too late

Jaded heart
You look but don't see
Love in front of you
You can't believe
Jaded heart
Love can't get to you
To bring your heart to me

I realize you've heard it all before
Lies and promises, you don't listen anymore

How I hope that I will find a way
To break down all these walls that you have made
But my eyes see that it's too late 

Jaded heart
You look but don't see
Love in front of you
You can't believe
Jaded heart
Jaded heart
Love can't get to you
To bring your heart to me

How I wish that I could take you away
I would show you that my love's not the same
Can it be that I found you too late

Jaded Heart
You look but don't see
Love in front of you
You can't believe
Jaded Heart
Love can't get to you
To bring your heart to me



Добавлено: 26.07.2012
Другие материалы по этой песне:

Страница создана 15.06.2012
http://primanota.ru/dokken/jaded-heart-chords.htm
Привет, Гость.
Предлагаем пройти революционный курс по гитаре.
Подарок от PrimaNota.Ru, забирай!