PrimaNota.ru - самый крупный в мире бесплатный архив песенных текстов, аккордов, табулатур и нот


Disturbed - Fire It Up - таба, видео

Регистрация Запомнить меня
Войти через:  Facebook Google Twitter Vk Yandex Mail.ru

Disturbed - Fire It Up - таба, видео

Печатать
Просмотров: 153
-------------------------------------------------------------------------------
                             Fire It Up - Disturbed
-------------------------------------------------------------------------------
Tabbed by: TheSpudOfGod aka Ben Ward
E-mail: tinkertraine@yahoo.com

First tab. Enjoy.


Tuning: Drop B

        C#
        G#
        E 
        B 
        F#
        B 


************************************
| w   wah
| /   slide up
| \   slide down
| h   hammer-on
| p   pull-off
| ~   vibrato
| ph  pinch harmonic
| +   harmonic
| x   Mute note
| b   Bend
| pb  Pre-bend
| br  Bend release
| pbr Pre-bend release
| brb Bend release bend
| *   Palm mute

************************************



------------------------------------------------------------------------------
                                    Main Riff
------------------------------------------------------------------------------



C#|--------------------------------------------------------------------------|
G#|--------------------------------------------------------------------------|
E |--------------------------------------------------------------------------|
B |--------------------------------------------------------------------------|
F#|0-0-0-0-0-0-h5-p3-0--0-h6-p5-0--0-h5-p3-0--0------------------------------|
B |0-0-0-0-0-0-------0--0-------0--0-------0--0-56656656---------------------|
   * * * * * *       *  *       *  *       *  *

C#|--------------------------------------------------------------------------|
G#|--------------------------------------------------------------------------|
E |--------------------------------------------------------------------------|
B |--------------------------------------------------------------------------|
F#|0-0--0-0-h5-p3-0--0-h6-p5-0--0-h5-p3-0--0---------------------------------|
B |0-0--0-0-------0--0-------0--0-------0--0-56656655------------------------|
   * *  * *       *  *       *  *       *  *

C#|--------------------------------------------------------------------------|
G#|--------------------------------------------------------------------------|
E |--------------------------------------------------------------------------|
B |--------------------------------------------------------------------------|
F#|0-0--0-0--h5-p3-0--0-h6-p5-0--0-h5-p3-0--0--------------------------------|
B |0-0--0-0--------0--0-------0--0-------0--0-56656656-----------------------|
   * *  * *        *  *       *  *       *  *

C#|--------------------------------------------------------------------------|
G#|--------------------------------------------------------------------------|
E |--------------------------------------------------------------------------|
B |--------------------------------------------------------------------------|
F#|0-0--0-0-h5-p3-0--0-h6-p5-0--0-h5-p3-0--0---------------------------------|
B |0-0--0-0-------0--0-------0--0-------0--0-56656655------------------------|
   * *  * *       *  *       *  *       *  *

C#|--------------------------------------------------------------------------|
G#|--------------------------------------------------------------------------|
E |--------------------------------------------------------------------------|
B |--------------------------------------------------------------------------|
F#|0-0--0-0--h5-p3-0--0-h6-p5-0--0-h5-p3-0--0--------------------------------|
B |0-0--0-0--------0--0-------0--0-------0--0-56656656-----------------------|
   * *  * *        *  *       *  *       *  *
      When I need to spark...

C#|--------------------------------------------------------------------------|
G#|--------------------------------------------------------------------------|
E |--------------------------------------------------------------------------|
B |--------------------------------------------------------------------------|
F#|0-0--0-0-h5-p3-0--0-h6-p5-0--0-h5-p3-0--0---------------------------------|
B |0-0--0-0-------0--0-------0--0-------0--0-56656655------------------------|
   * *  * *       *  *       *  *       *  *
      And the melody...

C#|--------------------------------------------------------------------------|
G#|--------------------------------------------------------------------------|
E |--------------------------------------------------------------------------|
B |--------------------------------------------------------------------------|
F#|0-0--0-0--h5-p3-0--0-h6-p5-0--0-h5-p3-0--0--------------------------------|
B |0-0--0-0--------0--0-------0--0-------0--0-56656656-----------------------|
   * *  * *        *  *       *  *       *  *
      All I need is...

C#|--------------------------------------------------------------------------|
G#|--------------------------------------------------------------------------|
E |--------------------------------------------------------------------------|
B |--------------------------------------------------------------------------|
F#|0-0--0-0-h5-p3-0--0-h6-p5-0--0-h5-p3-0-0----------------------------------|
B |0-0--0-0-------0--0-------0--0-------0-0-~5--~6--~333---------------------|
   * *  * *       *  *       *  *       * *
      So the rhythm...

C#|--------------------------------------------------------------------------|
G#|--------------------------------------------------------------------------|
E |--------------------------------------------------------------------------|
B |--------------------------------------------------------------------------|
F#|0-0--0-0--h5-p3-0--0-h6-p5-0--0-h5-p3-0--0--------------------------------|
B |0-0--0-0--------0--0-------0--0-------0--0-56656656-----------------------|
   * *  * *        *  *       *  *       *  *
      Well I take a puff...

C#|--------------------------------------------------------------------------|
G#|--------------------------------------------------------------------------|
E |--------------------------------------------------------------------------|
B |--------------------------------------------------------------------------|
F#|0-0--0-0-h5-p3-0--0-h6-p5-0--0-h5-p3-0--0---------------------------------|
B |0-0--0-0-------0--0-------0--0-------0--0-5665665-------------------------|
   * *  * *       *  *       *  *       *  *
      And it carries me...                   FIRE IT UP-



------------------------------------------------------------------------------
                                     Chorus
------------------------------------------------------------------------------                 



C#|--------------------------------------------------------------------------|
G#|--------------------------------------------------------------------------|
E |--3ph-------------------------7-7-----------------------------------------|
B |----3ph------3ph--------------7-7----+5-----------------------------------|
F#|---------------3ph---333--0---5-5---------+5---3---2---5---5----0---00-0-0|
B |3---------2----------333--0--------3----2------3---2---5---5----0---00-0-0|
                        ***                                            ** * *
                                   I like to...                    FIRE IT UP-             
  
C#|--------------------------------------------------------------------------|
G#|--------------------------------------------------------------------------|
E |--3ph-------------------------7-7-----------------------------------------|
B |----3ph------3ph--------------7-7----+5-----------------------------------|
F#|---------------3ph---333--0---5-5---------+5---3-xx-3-xx-3/555555555555555|
B |3---------2----------333--0--------3----2------3-xx-3-xx-3/555555555555555|
                        ***                                   ***************
                                  Cuz' when I...


------------------------------------------------------------------------------
                                     Bridge
------------------------------------------------------------------------------ 



C#|--------------------------------------------------------------------------|
G#|--------------------------------------------------------------------------|
E |--------------------------------------------------------------------------|
B |--------------------------------------------------------------------------|
F#|0-0-00-0-h5p3-0-0--0-h6p5-0-0--h5p3--0-0----------------------------------|
B |0-0-00-0------0-0--0------0-0--------0-0--566566566-----------------------|
   * * ** *      * *  *      * *        * *

C#|--------------------------------------------------------------------------|
G#|--------------------------------------------------------------------------|
E |--------------------------------------------------------------------------|
B |--------------------------------------------------------------------------|
F#|0-0-00-0-h5p3-0-0--(0)-h6p5-0-0--h5p3--0-0--------------------------------|
B |0-0-00-0------0-0--(0)------0-0--------0-0--56656655----------------------|
   * * ** *      * *           * *        * *

C#|--------------------------------------------------------------------------|
G#|--------------------------------------------------------------------------|
E |--------------------------------------------------------------------------|
B |--------------------------------------------------------------------------|
F#|--------------------------------------------------------------------------|
B |56656655------------------------------------------------------------------|





------------------------------------------------------------------------------
                                    Main Riff
------------------------------------------------------------------------------



C#|--------------------------------------------------------------------------|
G#|--------------------------------------------------------------------------|
E |--------------------------------------------------------------------------|
B |--------------------------------------------------------------------------|
F#|0-0--0-0-h5-p3-0--0-h6-p5-0--0-h5-p3-0--0---------------------------------|
B |0-0--0-0-------0--0-------0--0-------0--0-56656655------------------------|
   * *  * *       *  *       *  *       *  * 
      When I'm looking...

C#|--------------------------------------------------------------------------|
G#|--------------------------------------------------------------------------|
E |--------------------------------------------------------------------------|
B |--------------------------------------------------------------------------|
F#|0-0--0-0-h5-p3-0--0-h6-p5-0--0-h5-p3-0-0----------------------------------|
B |0-0--0-0-------0--0-------0--0-------0-0-~5--~6--~333---------------------|
   * *  * *       *  *       *  *       * *
      I only partake...

C#|--------------------------------------------------------------------------|
G#|--------------------------------------------------------------------------|
E |--------------------------------------------------------------------------|
B |--------------------------------------------------------------------------|
F#|0-0--0-0--h5-p3-0--0-h6-p5-0-0-h5-p3-0--0---------------------------------|
B |0-0--0-0--------0--0-------0-0-------0--0-56656656------------------------|
   * *  * *        *  *       * *       *  *
      And then the...

C#|--------------------------------------------------------------------------|
G#|--------------------------------------------------------------------------|
E |--------------------------------------------------------------------------|
B |--------------------------------------------------------------------------|
F#|0-0--0-0-h5-p3-0--0-h6-p5-0--0-h5-p3-0--0---------------------------------|
B |0-0--0-0-------0--0-------0--0-------0--0-5665665-------------------------|
   * *  * *       *  *       *  *       *  *
      It helps me...                         FIRE IT UP-


------------------------------------------------------------------------------
                                     Chorus
------------------------------------------------------------------------------                 



C#|--------------------------------------------------------------------------|
G#|--------------------------------------------------------------------------|
E |--3ph-------------------------7-7-----------------------------------------|
B |----3ph------3ph--------------7-7----+5-----------------------------------|
F#|---------------3ph---333--0---5-5---------+5---3---2---5---5----0---00-0-0|
B |3---------2----------333--0--------3----2------3---2---5---5----0---00-0-0|
                        ***  *                                         ** * *
                                  I like to...                     FIRE IT UP-

C#|--------------------------------------------------------------------------|
G#|--------------------------------------------------------------------------|
E |--3ph-------------------------7-7-----------------------------------------|
B |----3ph------3ph--------------7-7----+5-----------------------------------|
F#|---------------3ph---333--0---5-5---------+5---3-xx-3-xx-3/555555555555555|
B |3---------2----------333--0--------3----2------3-xx-3-xx-3/555555555555555|
                        ***  *                                *************** 
                                  Cuz when I...        



------------------------------------------------------------------------------
                                    Pre Solo
------------------------------------------------------------------------------  



C#|--------------------------------------------------------------------------|
G#|--------------------------------------------------------------------------|
E |--------------------------------------------------------------------------|
B |--------------------------------------------------------------------------|
F#|3--0-0-0-0--0-5-6-5--0-0----0-5-6-5------7-8--0--3-2-2p0------------------|
B |3--0-0-0-0-----------0-0--0---------0-0-------0--3-2-2p0------------------|
   *  * * * *           * *  *         * *    

C#|--------------------------------------------------------------------------|
G#|--------------------------------------------------------------------------|
E |--------------------------------------------------------------------------|
B |--------------------------------------------------------------------------|
F#|-------05676-------0565656-------78-0-5-6---3--0-0-0---0567--0-0-0---05650|
B |0-0-0-0-----0-0--0---------0-0-0----0-5-6---3--0-0-0-0-------0-0-0--------|
   * * * *     * *  *         * * *    * * *   *  * * * *       * * *
                                               Fire-        it-          up-

C#|--------------------------------------------------------------------------|
G#|--------------------------------------------------------------------------|
E |----------------------------------------------------7/8-------------------|
B |----------------------------------------------------7/8-------------------|
F#|----78-0-0-3-2-2p0--0-0-0---0565-0-0-00--05650------5/6-------------------|
B |0-0----0-0-3-2-2p0--0-0-0-0------0-0-00-0------0-0------------------------|
   * *    * * * * * *  * * * *      * * ** *      * *
                   Fire-         it-          up-



------------------------------------------------------------------------------
                                        Solo
------------------------------------------------------------------------------  



C#|--------------------------------------------------------------------------------|
G#|---------w17-----w18-----------14-15-14-13-14-13-12-13-12----12-----------------|
E |w19----------------------w17------------------------------15----15-14-15--------|
B |--------------------------------------------------------------------------------|
F#|--------------------------------------------------------------------------------|
B |--------------------------------------------------------------------------------|


C#|--------------------------------------------------------------------------------|
G#|--------------------------------------------------------------------------------|
E |14-13-14-13-12-13-12----12------------------------------------------------------|
B |---------------------16----16-15-16-15-14-15-14-13-14-13-12-13-12---------------|
F#|--------------------------------------------------------------------------------|
B |--------------------------------------------------------------------------------|

C#|------------------------------------------------15-15-15-15-------15-17-17-17-17|
G#|15-15-15-15-17-17-17-17-18-18-18-18-17-17-18-18-------------17-17---------------|
E |--------------------------------------------------------------------------------|
B |--------------------------------------------------------------------------------|
F#|--------------------------------------------------------------------------------|
B |--------------------------------------------------------------------------------|

C#|18-18-18-18-20-20-20-20-18-17-18-17-15------------------------------------------|
G#|---------------------------------------18-18-18-17-17-17-15-15-15-17-17-17-15-15|
E |--------------------------------------------------------------------------------|
B |--------------------------------------------------------------------------------|
F#|--------------------------------------------------------------------------------|
B |--------------------------------------------------------------------------------|


C#|--------------------------------------------------------------------------------|
G#|17-17-17-15-15-13-13-13-15-15-13-13-13-15-15-15-13-13-13-12-12-12---------------|
E |--------------------------------------------------------------------------------|
B |--------------------------------------------------------------------------------|
F#|--------------------------------------------------------------------------------|
B |--------------------------------------------------------------------------------|


C#|--13----13----13----15---13--12-------13--15--12--------------------------------|
G#|15--15------15--15----------------15--------------15b15-------------------------|
E |------14--14------14--14---14---14--14--14--14--14--b14-------------------------|
B |--------------------------------------------------------------------------------|
F#|--------------------------------------------------------------------------------|
B |--------------------------------------------------------------------------------|



------------------------------------------------------------------------------
                                     Bridge Two
------------------------------------------------------------------------------



C#|--------------------------------------------------------------------------|
G#|--------------------------------------------------------------------------|
E |8\7-8--8\7-8--8/10-8--8\7-8--7-8-7-8--------------------------------------|
B |8\7-8--8\7-8--8/10-8--8\7-8--7-8-7-8--------------------------------------|
F#|6\5-6--6\5-6--6/8--6--6\5-6--5-6-5-6-------15\p3--------------------------|
B |-------------------------------------------15\p3--------------------------|
                                  FIRE IT UP- (FIRE IT UP-)



------------------------------------------------------------------------------
                                     Chorus
------------------------------------------------------------------------------                 




C#|--------------------------------------------------------------------------|
G#|--------------------------------------------------------------------------|
E |--3ph-------------------------7-7-----------------------------------------|
B |----3ph------3ph--------------7-7----+5-----------------------------------|
F#|---------------3ph---333--0---5-5---------+5---3---2---5---5----0---00-0-0|
B |3---------2----------333--0--------3----2------3---2---5---5----0---00-0-0|
                        ***  *                                         ** * *
                                  I like to...                     FIRE IT UP-

C#|--------------------------------------------------------------------------|
G#|--------------------------------------------------------------------------|
E |--3ph-------------------------7-7-----------------------------------------|
B |----3ph------3ph--------------7-7----+5-----------------------------------|
F#|---------------3ph---333--0---5-5---------+5---3-xx-3-xx-3/555555555555555|
B |3---------2----------333--0--------3----2------3-xx-3-xx-3/555555555555555|
                        ***  *                                ***************
                                  Cuz' when I...



------------------------------------------------------------------------------
                                     Outro
------------------------------------------------------------------------------ 



C#|--------------------------------------------------------------------------|
G#|--------------------------------------------------------------------------|
E |--------------------------------------------------------------------------|
B |--------------------------------------------------------------------------|
F#|3--0-0-0-0----0676---0-0----05650-5-0-0-56--3-2-20-0-0-0-0--1------3-0-0-0|
B |3--0-0-0-0-(0)-------0-0--0---------0-0-----3-2-20-0-0-0-0--1------3-0-0-0|
   *  * * * *           * *  *         * *     * * ** * * * *         * * * *
   MIIII-





************************************
| w   wah
| /   slide up
| \   slide down
| h   hammer-on
| p   pull-off
| ~   vibrato
| ph  pinch harmonic
| +   harmonic
| x   Mute note
| b   Bend
| pb  Pre-bend
| br  Bend release
| pbr Pre-bend release
| brb Bend release bend
* Palm mute

************************************
Добавлено: 01.12.2015
Другие материалы по этой песне:
  • Аккорды и текст

Страница создана 01.12.2015
http://primanota.ru/disturbed/fire-it-up-chords.htm
Привет, Гость.
Предлагаем пройти революционный курс по гитаре.
Подарок от PrimaNota.Ru, забирай!