PrimaNota.ru - самый крупный в мире бесплатный архив песенных текстов, аккордов, табулатур и нот


Disturbed - Immortalized - таба, видео

Регистрация Запомнить меня
Войти через:  Facebook Google Twitter Vk Yandex Mail.ru

Disturbed - Immortalized - таба, видео

Печатать
Просмотров: 401
Уроки эстрадного вокала в Санкт-Петербурге
Disturbed: Immortalized

Transcribed by: mysticguitar77

Facebook: https://www.facebook.com/MysticGuitar77
YouTube Channel: https://www.youtube.com/user/MysticGuitar77

Date last modified: July 25, 2015

Tuning: Drop B (B,F#,B,E,G#,C#)

Riff 1
C#|-------------------------------------------------|
G#|-------------------------------------------------|
 E|-------------------------------------------------|
 B|-------------7-----------------------8-----------|
F#|-------------5-----------------------6-----------|
 B|-3p0-0-0-0-0---0-0-0-0-0-3p0-0-0-0-0---0-0-5-0-6-|
        * * * *   * * * * *     * * * *   * *   *

C#|-------------------------------------------------|
G#|-------------------------------------------------|
 E|-------------------------------------------------|
 B|-------------7-----------8-----------7-----------|
F#|-------------5-----------6-----------5-----------|
 B|-3p0-0-0-0-0---0-0-0-0-0---0-5-0-5h6---0-0-5h6-6-|
        * * * *   * * * * *   *   *       * *

C#|-------------------------------------------------|
G#|-------------------------------------------------|
 E|-------------------------------------------------|
 B|-------------7-----------------------8-----------|
F#|-------------5-----------------------6-----------|
 B|-3p0-0-0-0-0---0-0-0-0-0-3p0-0-0-0-0---0-0-5-0-6-|
        * * * *   * * * * *     * * * *   * *   *

C#|-------------------------------------------------|
G#|-------------------------------------------------|
 E|-------------------------------------------------|
 B|-8-8-8-8-8-8-3-3-3-3-3-3-6-6-6-6-6-6-3-3-3-1-1-1-|
F#|-8-8-8-8-8-8-3-3-3-3-3-3-6-6-6-6-6-6-3-3-3-1-1-1-|
 B|-8-8-8-8-8-8-3-3-3-3-3-3-6-6-6-6-6-6-3-3-3-1-1-1-|

Play Riff 1 x3   "This is wartime, this is our time..."

Riff 1 ending alteration (leads into pre-chorus)   "...now be woken..."
C#|-------------------------------------------------|
G#|-------------------------------------------------|
 E|-------------------------------------------8-8-8-|
 B|-8-8-8-8-8-8-3-3-3-3-3-3-6-6-6-6-6-6-3-3-3-8-8-8-|
F#|-8-8-8-8-8-8-3-3-3-3-3-3-6-6-6-6-6-6-3-3-3-6-6-6-|
 B|-8-8-8-8-8-8-3-3-3-3-3-3-6-6-6-6-6-6-3-3-3-------|

Riff 2   "In this world only the strong will survive..."
C#|------------------------------------------------|
G#|------------------------------------------------|
 E|------------------------------------------------|
 B|---------7-7-7-5-5-8p7--------------------------| x3
F#|-5-5-5-5---------------8-8-8-8-8---0-0-0-0-8-10-|
 B|-5-5-5-5-----------------8-8-8-8---0-0-0-0-8-10-|
    * * * *                 * * * *   * * * * * *

C#|-------------------------------------------------|
G#|-------------------------------------------------|
 E|-------------------------5-5-5-5-5-5-8-8-8-8-8-8-|
 B|-6-6-6-6-6-6-6-6-6-6-6-6-5-5-5-5-5-5-8-8-8-8-8-8-|
F#|-6-6-6-6-6-6-6-6-6-6-6-6-3-3-3-3-3-3-6-6-6-6-6-6-|
 B|-6-6-6-6-6-6-6-6-6-6-6-6-------------------------|

Riff 3   "Oh, in the calm before the storm..."
C#|---------------------------------------------------------------|
G#|---------------------------------------------------------------|
 E|---------------------------------------------------------------|
 B|-5-5-5-5-5-5-5-5-5-5-0-0-0-0-0-7-7-7-8-7-0-8-8-8-8-8-8-8-8-8-8-|
F#|-5-5-5-5-5-5-5-5-5-5-0-0-0-0-0-7-7-7-8-7-0-8-8-8-8-8-8-8-8-8-8-|
 B|-5-5-5-5-5-5-5-5-5-5-0-0-0-0-0-7-7-7-8-7-0-8-8-8-8-8-8-8-8-8-8-|
        * * *     * * *     * * * * * * * * *     * * *     * * *

C#|-------------------------------------------------------------|
G#|-------------------------------------------------------------|
 E|-------------------------------------------------------------|
 B|-1-1-1-1-1-1-1-1-1-1-2-2-2-2-2-2-2-2-2-2-2-2-2-2-2-2-2-2-2-2-|
F#|-1-1-1-1-1-1-1-1-1-1-2-2-2-2-2-2-2-2-2-2-2-2-2-2-2-2-2-2-2-2-|
 B|-1-1-1-1-1-1-1-1-1-1-2-2-2-2-2-2-2-2-2-2-2-2-2-2-2-2-2-2-2-2-|
        * * *     * * *     * * *     * * *     * * * * * * * *

C#|---------------------------------------------|
G#|---------------------------------------------|
 E|---------------------5/7---7\5---5\3---3/5\3-|
 B|-4-4-4-4-4-4-4-4-4-4-x-x---x-x---x-x---x-x-x-|
F#|-5-5-5-5-5-5-5-5-5-5-3/5---5\3---3\1---1/3\1-|
 B|-4-4-4-4-4-4-4-4-4-4-----0-----0-----0-------|
        * * *     * * *     *     *     *

C#|---------------------------------------------------------------|
G#|---------------------------------------------------------------|
 E|---------------------------------------------------------------|
 B|-5-5-5-5-5-5-5-5-5-5-0-0-0-0-0-7-7-7-8-7-0-8-8-8-8-8-8-8-8-8-8-|
F#|-5-5-5-5-5-5-5-5-5-5-0-0-0-0-0-7-7-7-8-7-0-8-8-8-8-8-8-8-8-8-8-|
 B|-5-5-5-5-5-5-5-5-5-5-0-0-0-0-0-7-7-7-8-7-0-8-8-8-8-8-8-8-8-8-8-|
        * * *     * * *     * * * * * * * * *     * * *     * * *

C#|-------------------------------------------------------------|
G#|-------------------------------------------------------------|
 E|-------------------------------------------------------------|
 B|-1-1-1-1-1-1-1-1-1-1-2-2-2-2-2-2-2-2-2-2-2-2-2-2-2-2-2-2-2-2-|
F#|-1-1-1-1-1-1-1-1-1-1-2-2-2-2-2-2-2-2-2-2-2-2-2-2-2-2-2-2-2-2-|
 B|-1-1-1-1-1-1-1-1-1-1-2-2-2-2-2-2-2-2-2-2-2-2-2-2-2-2-2-2-2-2-|
        * * *     * * *     * * *     * * *     * * * * * * * *

C#|---------------------------------------------------------|
G#|---------------------------------------------------------|
 E|---------------------------------------------------------|
 B|-4-4-4-4-4-4-4-4-4-4-------------------------------------|
F#|-5-5-5-5-5-5-5-5-5-5-------------------10----------------|
 B|-4-4-4-4-4-4-4-4-4-4-12-12-12-12-10-12----12-11-10-12-10-|
        * * *     * * * *  *  *  *  *  *  *  *  *  *  *  *

Play Riff 1 x3   "Raw emotion, pure devotion..."
Play Riff 2 x1   "Are you ready for the test of your life..."
Play Riff 3 x1   "Oh, in the calm before the storm..."

Riff 4   "Be immortalized..."
C#|-----------------------------------------------------|
G#|-----------------------------------------------------|
 E|-----------------------------------------------------|
 B|-8-8-8-8-8-8-8-8-8-8-8-8-10-10-10-10-10-10-8-8-8-----|
F#|-8-8-8-8-8-8-8-8-8-8-8-8-10-10-10-10-10-10-8-8-8-12\-|
 B|-8-8-8-8-8-8-8-8-8-8-8-8-10-10-10-10-10-10-8-8-8-12\-|

C#|----------------------------------------------------|
G#|----------------------------------------------------|
 E|--------------------9---7---------------------------|
 B|------------9---7-----------8---7-------------------|
F#|-8h10-0-7-0---0---0---0---0---0---0-8-8/10\8-7----7-|
 B|-----------------------------------------------10---|
         *   *   *   *   *   *   *   *

Riff 5                                         1st & 3rd time     2nd time
C#|-------------------------------------------|----------------|----------------|
G#|-------------------------------------------|----------------|----------------|
 E|-------------------------------------------|----------------|----------------|
 B|-------------------------------------------|----------------|----------------|
F#|-------13---12---------------------13---12-|----------------|---15---13---12-|
 B|-0-0-0----0----0-0-0-13-0-12-0-0-0----0----|-0-13-0-12-0-10-|-0----0----0----|
    * * *    *    * * *    *    * * *    *      *    *    *      *    *    *

C#|--------------------------------------------------------------|
G#|--------------------------------------------------------------|
 E|--------------------------------------------------------------|
 B|--------------------------------------------------------------|
F#|-------13---12-----------------13-12-13-----------------------|
 B|-0-0-0----0----0-0-0-13-0-12-0----------0-0-14-15-14-12-14-10-|
    * * *    *    * * *    *    *          * *

Play Riff 5 x3   "Feel it, take no prisoners now..."
Play Riff 4 x1   "Last for all time..."
Play Riff 3 x1   "Oh, in the calm before the storm..."
Play Riff 5 x2   "Be immortalized..."

Enjoy!!








Добавлено: 01.12.2015
Другие материалы по этой песне:

Страница создана 01.12.2015
http://primanota.ru/disturbed/immortalized-chords.htm
Привет, Гость.
Предлагаем пройти революционный курс по гитаре.
Подарок от PrimaNota.Ru, забирай!