PrimaNota.ru - самый крупный в мире бесплатный архив песенных текстов, аккордов, табулатур и нот


Disturbed - Open Your Eyes - таба, бас-таба, видео

Регистрация Запомнить меня
Войти через:  Facebook Google Twitter Vk Yandex Mail.ru

Disturbed - Open Your Eyes - таба, бас-таба, видео

Печатать
Просмотров: 334
Уроки эстрадного вокала в Санкт-Петербурге
Disturbed: Open Your Eyes

Transcribed by: mysticguitar77

Facebook: https://www.facebook.com/MysticGuitar77
YouTube Channel: https://www.youtube.com/user/MysticGuitar77

Date last modified: September 15, 2015

Tuning: Drop C (C,G,C,F,A,D)

Riff 1
D|---------------------------------------------------------------------------------|
A|---------------------------------------------------------------------------------|
F|---------------------------------------------------------------------------------|
C|-------------------------------------------------------------------------1--1--1-|
G|--------------------------5----------8p5----------------------------5----1--1--1-|
C|-0-0-12\-0-0---0-12\--0h6---6-0-0--0-----6-0-0-12\-0-0---0-12\--0h6---6--1--1--1-|
                                * *  *

Play Riff 1 x2

Fill 1   "You're paralyzed with your disguise..."
D|------------------------------|
A|------------------------------|
F|------------------------------|
C|-0--0-----0--0-----0--0-----8-|
G|-0--0-----0--0-----0--0-----8-|
C|-0--0-----0--0-----0--0-----8-|

Riff 2   "Gotta break away from the numbing pain..."
D|---------------------------------------------------------------------|
A|---------------------------------------------------------------------|
F|---------------------------------------------------------------------|
C|-----------7/8\7-----------8\7---10-----------7/8\7---------10-10-10-|
G|-0--0--0-0-5/6\5-0-0--0--0-6\5-0-8--0--0--0-0-5/6\5-0-8-8-8-8--8--8--|
C|-0--0--0-0-------0-0--0--0-----0----0--0--0-0-------0-8-8-8----------|
   *  *  * *       * *  *  *     *    *  *  * *       *

Play Riff 2 x3   "You're hypnotized, demoralized..."

Riff 3
D|-------------------------------|
A|-------------------------------|
F|-------------------------------|
C|-5--5-5--5-5-5-7-7-7-7-7-7-7-7-|
G|-5--5-5--5-5-5-7-7-7-7-7-7-7-7-|
C|-5--5-5--5-5-5-7-7-7-7-7-7-7-7-|
                 * * * * * * 

Riff 4   "Woah, open your eyes..."
D|---------------------------------------------------------------------------|
A|---------------------------------------------------------------------------|
F|---------------------------------------------------------------------------|
C|-0--0--0-8-------------0--0--0-8---7-8-0--0--0-8-------------0--0--0-8---7-|
G|-0--0--0-8-0-0-0-0-0-0-0--0--0-8-0-7-8-0--0--0-8-0-0-0-0-0-0-0--0--0-8-0-7-|
C|-0--0--0-8-0-0-0-0-0-0-0--0--0-8-0-7-8-0--0--0-8-0-0-0-0-0-0-0--0--0-8-0-7-|
             * * * * * *           *               * * * * * *           *

D|------------------------------------------------------------------|
A|------------------------------------------------------------------|
F|------------------------------------------------------------------|
C|-0--0--0-8-------------0--0--0-8---7-8-5-5--5-5--5-5-8-8--8-8-7-7-|
G|-0--0--0-8-0-0-0-0-0-0-0--0--0-8-0-7-8-5-5--5-5--5-5-8-8--8-8-7-7-|
C|-0--0--0-8-0-0-0-0-0-0-0--0--0-8-0-7-8-5-5--5-5--5-5-8-8--8-8-7-7-|
             * * * * * *           *

Riff 5
D|----------------------------------------|
A|----------------------------------------|
F|----------------------------------------|
C|-0--0-----0--0-----0--0-----5-5-5-8-8-7-|
G|-0--0-----0--0-----0--0-----5-5-5-8-8-7-|
C|-0--0-----0--0-----0--0-----5-5-5-8-8-7-|

Fill 2   "You've lost your sense..."
D|---------------------------------------------------|
A|---------------------------------------------------|
F|-------------------------------------------5-5/7-7-|
C|-------------------------------------------x-x-x-x-|
G|-0--0--0-----0--0--0-----0--0--0-----8-8-8-3-3/5-5-|
C|-0--0--0-----0--0--0-----0--0--0-----8-8-8---------|
   *  *  *     *  *  *     *  *  *

Play Riff 2 x3   "Come whole again and let the war begin..."
Play Riff 3 x1
Play Riff 4 x2   "Woah, open your eyes..."
Play Riff 1 x4   "You would all be running..."
Play Riff 4 x2   "Woah, open your eyes..."
Play Riff 5 x2

Enjoy!!


Добавлено: 15.03.2016
Другие материалы по этой песне:

Страница создана 06.02.2016
http://primanota.ru/disturbed/open-your-eyes-chords.htm
Привет, Гость.
Предлагаем пройти революционный курс по гитаре.
Подарок от PrimaNota.Ru, забирай!