PrimaNota.ru - самый крупный в мире бесплатный архив песенных текстов, аккордов, табулатур и нот


Disturbed - Never Wrong - бас-таба, видео

Регистрация Запомнить меня
Войти через:  Facebook Google Twitter Vk Yandex Mail.ru

Disturbed - Never Wrong - бас-таба, видео

Печатать
Просмотров: 150
-------------------------------------------------------------------------------
                             Never Wrong - Disturbed
-------------------------------------------------------------------------------
Tabbed by: Andu Needle
E-mail: sulfur_in_my_lungs@yahoo.com

Intro and Verse:

E |---------------------------------------------------------------------------|
B |---------------------------------------------------------------------------|
F#|-----5------6~---8------8-----3~-------------------------------------------|
B |-0000-0-0-0----00-0-0-0---0-0----------------------------------------------|

E |---------------------------------------------------------------------------|
B |---------------------------------------------------------------------------|
F#|-----5------6~---8---------------------------------------------------------|
B |-0000-0-0-0----00-0-0-0-1-1-1----------------------------------------------|

Chorus:

E |---------------------------------------------------------------------------|
B |---------------------------------------------------------------------------|
F#|-------------------------------------------------8-8-8-8-5-5-3-3-----------|
B |-5-5-5-5-5-5-5-5-7-7-7-7-7-7-7-7-8-8-8-8-8-8-8-8---------------------------|

E |---------------------------------------------------------------------------|
B |---------------------------------------------------------------------------|
F#|-------------------------------------------8-8-8-6-6-8-8-8-----------------|
B |-55555555(x2)-77777777(x2)-888-888-888-888---------------------------------|

Verse 2 is the same as the first one!
Chorus 2 is the same as the first one!

Solo:

Not sure about the solo part. I just go along with the guitar riff.

E |---------------------------------------------------------------------------|
B |-----------------------------5h8-------------------------------------------|
F#|-----3-----5h6-----3---5h6-------------------------------------------------|
B |-0-0---0-0-----0-0---0-----0-----------------------------------------------|(x4)

Bridge:

E |---------------------------------------------------------------------------|
B |---------------------------------------------------------------------------|
F#|---------------------------------------------------------------------------|
B |-6-0000--6-0000-8-5--6-0000-6-00000000-------------------------------------|(x3)

E |---------------------------------------------------------------------------|
B |---------------------------------------------------------------------------|
F#|---------------------------------------------------------------------------|
B |-6-0000--6-0000-8-5--6-0000-6--5-------------------------------------------|

Last chorus:

E |---------------------------------------------------------------------------|
B |---------------------------------------------------------------------------|
F#|-------------------------------------------------8-8-8-6-6-8-8-8-----------|
B |-5-5-5-5-5-5-5-5-7-7-7-7-7-7-7-7-888-888-888-888---------------------------|

E |---------------------------------------------------------------------------|
B |---------------------------------------------------------------------------|
F#|-------------------------------------------------8-8-8-8-5-5-3-3-----------|
B |-5-5-5-5-5-5-5-5-7-7-7-7-7-7-7-7-8-8-8-8-8-8-8-8---------------------------|

E |---------------------------------------------------------------------------|
B |---------------------------------------------------------------------------|
F#|-------------------------------------------8-8-8-6-6-8-8-8-----------------|
B |-55555555(x2)-77777777(x2)-888-888-888-888---------------------------------|

Outro:

E |---------------------------------------------------------------------------|
B |---------------------------------------------------------------------------|
F#|-----5------6~---8------8-----3~-------------------------------------------|
B |-0000-0-0-0----00-0-0-0---0-0----------------------------------------------|

E |---------------------------------------------------------------------------|
B |---------------------------------------------------------------------------|
F#|-----5------6~---8---------------------------------------------------------|
B |-0000-0-0-0----00-0-0-0-1-1-1----------------------------------------------|
Добавлено: 06.02.2016
Другие материалы по этой песне:
  • Аккорды и текст

Страница создана 06.02.2016
http://primanota.ru/disturbed/never-wrong-chords.htm
Привет, Гость.
Предлагаем пройти революционный курс по гитаре.
Подарок от PrimaNota.Ru, забирай!