PrimaNota.ru - самый крупный в мире бесплатный архив песенных текстов, аккордов, табулатур и нот


Disturbed - What Are You Waiting For - бас-таба, видео

Регистрация Запомнить меня
Войти через:  Facebook Google Twitter Vk Yandex Mail.ru

Disturbed - What Are You Waiting For - бас-таба, видео

Печатать
Просмотров: 202
-------------------------------------------------------------------------------
                             What Are You Waiting For - Disturbed
-------------------------------------------------------------------------------
Tabbed by: Andu Needle
E-mail: sulfur_in_my_lungs@yahoo.com

Intro:

F|------------------------------------------------------------------------|
C|------------------------------------------------------------------------|
G|-xx6--xx6---------------------------------------------------------------|
C|------------------------------------------------------------------------|

F|------------------------------------------------------------------------|
C|------------------------------------------------------------------------|
G|-5~--------65---35-36~-----65---56--------------------------------------|
C|----00-0-0----0--------0-0----0----0-3-0-5-5----------------------------|

F|------------------------------------------------------------------------|
C|------------------------------------------------------------------------|
G|-5~--------65---35-36~-------(10)-----8-----6---------------------------|
C|----00-0-0----0--------0-0-0------000---000-----------------------------|

Verse:

F|------------------------------------------------------------------------|
C|------------------------------------------------------------------------|
G|-5~--------65---35-36~-----65---56--------------------------------------|
C|----00-0-0----0--------0-0----0----0-3-0-5-5----------------------------|

F|------------------------------------------------------------------------|
C|------------------------------------------------------------------------|
G|-5~--------65---35-36~-------(10)-----8-----6---------------------------|
C|----00-0-0----0--------0-0-0------0-0--0000-----------------------------|

Pre chorus:

F|------------------------------------------------------------------------|
C|------------------------------------------------------------------------|
G|------------------------------------------------------------------------|
C|-33333333-33333333-77777777-77777777------------------------------------|

Chorus:

F|------------------------------------------------------------------------|
C|------------------------------------------------------------------------|
G|------------------------------------------------------------------------|
C|-000888-000888-0887--000888-3~-5~--303----------------------------------|(x2)

F|------------------------------------------------------------------------|
C|------------------------------------------------------------------------|
G|-------------------------------x3~--------------------------------------|
C|-000888-000888-0887--000888-5~-----x1~-1--------------------------------|

F|------------------------------------------------------------------------|
C|------------------------------------------------------------------------|
G|------------------------------------------------------------------------|
C|-000888-000888-0887--000888-3~-5~--303----------------------------------|

Middle riff:

F|------------------------------------------------------------------------|
C|------------------------------------------------------------------------|
G|-5~-----------65---35-36~-------65---56---------------------------------|
C|----00000-0-0----0--------00000----0----0-3-0-5-5-----------------------|

F|------------------------------------------------------------------------|
C|------------------------------------------------------------------------|
G|-5~-----------65---35-36~---------(10)-----8-----6----------------------|
C|----00000-0-0----0--------00000-0------000---000------------------------|

Verse 2 is the same as the first one!
Pre chorus 2 is the same as the first one!
Chorus 2 is the same as the first one!

Bridge:

F|-----------------------------------------------------------------------|
C|-----------------------------------------------------------------------|
G|-----------------------------------------------------------------------|
C|-00---00--0-0----------------------------------------------------------|

F|-----------------------------------------------------------------------|
C|-----------------------------------------------------------------------|
G|-------5------------------------------5---------------------2----------|
C|-1-0-0---0-0-3-0-0-5-0-0-6-5-3-5--1-0---0-0-3-0-5-0-6-0-2-3---3-2------|(x5)

The last chorus is the same as the others!
The outro is the middle riff and the ending note is C!
Добавлено: 06.02.2016
Другие материалы по этой песне:
  • Аккорды и текст

Страница создана 06.02.2016
http://primanota.ru/disturbed/what-are-you-waiting-for-chords.htm
Привет, Гость.
Предлагаем пройти революционный курс по гитаре.
Подарок от PrimaNota.Ru, забирай!