PrimaNota.ru - самый крупный в мире бесплатный архив песенных текстов, аккордов, табулатур и нот


Disciple - Revolution Now - текст песни, таба, видео

Регистрация Запомнить меня
Войти через:  Facebook Google Twitter Vk Yandex Mail.ru

Disciple - Revolution Now - текст песни, таба, видео

Печатать
Просмотров: 152
                      Revolution:Now - Disciple



Tabbed by:termin8trkop

Tuning: CGCFAD

Intro:

D|---------------------------------------------------------------------------|
A|---------------------------------------------------------------------------|
F|---------------------------------------------------------------------------|
C|---0-----0-----------0------0-----------0-----0-----------3----3-5---------|
G|---------------2320---------------2320--------------2320-------------------|
C|------0-----0------------0-----0-----------0-----0-----------0-------------|

Pre-verse:

D|---------------------------------------------------------------------------|
A|---------------------------------------------------------------------------|
F|---------------------------------------------------------------------------|
C|--0-00--00000--00000----023-|--------5-55--5555-5555--33--0----------------|
G|--0-00--00000--00000--------|--(x3)--5-55--5555-5555--33--0----------------|
C|--0-00--00000--00000--------|--------5-55--5555-5555--33--0----------------|

Verse:
 
D|---------------------------------------------------------------------------|
A|---------------------------------------------------------------------------|
F|---------------------------------------------------------------------------|
C|---------------------------------------------------------------------------|
G|---------------------------------------------------------------------------|
C|--55-3--0-0--00000--0-00000-0-000000-0-5555--3-33333-3-333333--7-77777-7-77777-8|

Chorus: x2

D|---------------------------------------------------------------------------|
A|---------------------------------------------------------------------------|
F|---------------------------------------------------------------------------|
C|--3--0--0--0--023--3-3-3-3-3-3--5-5-5-5-5-5-3-3----------------------------|
G|--3--0--0--0-------3-3-3-3-3-3--5-5-5-5-5-5-3-3----------------------------|
C|--3--0--0--0-------3-3-3-3-3-3--5-5-5-5-5-5-3-3---77777h8p7----------------|


Pre-verse:

D|---------------------------------------------------------------------------|
A|---------------------------------------------------------------------------|
F|---------------------------------------------------------------------------|
C|--0-00--00000--00000----023-|--------5-55--5555-5555--33--0----------------|
G|--0-00--00000--00000--------|--------5-55--5555-5555--33--0----------------|
C|--0-00--00000--00000--------|--------5-55--5555-5555--33--0----------------|

Verse: x2
 
D|----------------------------------------------------------------------------------|
A|----------------------------------------------------------------------------------|
F|----------------------------------------------------------------------------------|
C|----------------------------------------------------------------------------------|
G|----------------------------------------------------------------------------------|
C|--55-3--0-0--00000--0-00000-0-000000-0-5555--3-33333-3-333333--7-77777-7-77777-8-|

Chorus: x2

D|---------------------------------------------------------------------------|
A|---------------------------------------------------------------------------|
F|---------------------------------------------------------------------------|
C|--3--0--0--0--023--3-3-3-3-3-3--5-5-5-5-5-5-3-3----------------------------|
G|--3--0--0--0-------3-3-3-3-3-3--5-5-5-5-5-5-3-3----------------------------|
C|--3--0--0--0-------3-3-3-3-3-3--5-5-5-5-5-5-3-3---77777h8p7----------------|

Pre-Bridge:

D|---------------------------------------------------------------------------|
A|---------------------------------------------------------------------------|
F|---------------------------------------------------------------------------|
C|--0-00--00000--00000----023--0-00-000000-----------------------------------|
G|--0-00--00000--00000---------0-00-000000-----------------------------------|
C|--0-00--00000--00000---------0-00-000000-----------------------------------|

Bridge: x4

D|----------------------------------------------------------------------------|
A|----------------------------------------------------------------------------|
F|----------------------------------------------------------------------------|
C|-----------7-----7----------7-----7------------7-----7--------3-----3-5-----|
G|---5--3----5-----5----2320--5-----5------2320--5-----5---232------------3--5|
C|---5--3------0-----0-----------0-----0------------0-----0--------0------3--5|
 (on the second half play full power chords and only play the first 5 3 at the beginning)

Chorus: x2

D|---------------------------------------------------------------------------|
A|---------------------------------------------------------------------------|
F|---------------------------------------------------------------------------|
C|--3--0--0--0--023--3-3-3-3-3-3--5-5-5-5-5-5-3-3----------------------------|
G|--3--0--0--0-------3-3-3-3-3-3--5-5-5-5-5-5-3-3----------------------------|
C|--3--0--0--0-------3-3-3-3-3-3--5-5-5-5-5-5-3-3---77777h8p7----------------|

Pre-verse:

D|---------------------------------------------------------------------------|
A|---------------------------------------------------------------------------|
F|---------------------------------------------------------------------------|
C|--0-00--00000--00000----023-|--------5-55--5555-5555--33--0----------------|
G|--0-00--00000--00000--------|--(x3)--5-55--5555-5555--33--0----------------|
C|--0-00--00000--00000--------|--------5-55--5555-5555--33--0----------------|

Добавлено: 24.05.2012
Другие материалы по этой песне:
  • Аккорды и текст

Страница создана 24.05.2012
http://primanota.ru/disciple/revolution-now-chords.htm
Привет, Гость.
Предлагаем пройти революционный курс по гитаре.
Подарок от PrimaNota.Ru, забирай!