PrimaNota.ru - самый крупный в мире бесплатный архив песенных текстов, аккордов, табулатур и нот


Disciple - Take Me - текст песни, таба, видео

Регистрация Запомнить меня
Войти через:  Facebook Google Twitter Vk Yandex Mail.ru

Disciple - Take Me - текст песни, таба, видео

Печатать
Просмотров: 116
Artist: Disciple
Song: Take Me
Album: What Was I Thinking
tabbed by Alex Miclea (alex_omul@yahoo.com)

This is a pretty cool and easy song! I had to sell my electric guitar so i didn't finish 
tab. The second solo and the outro are missing :(.

Intro 1
Eb---------|
Bb---------|
GB---------|
Db---------|
Ab---------|
Db-3/17/3--|

Intro 2
Eb------------------------------|
Bb------------------------------|
GB--7--7-5--5-5-----------------|
Db--7--7-5--5-5-5--6-5-3--5--0--|
Ab--5--5-3--3-3-5--6-5-3--5--0--|
Db--------------5--6-5-3--5--0--|
       .    . .
Intro 3
Eb------------------------------|
Bb--------------6--6-6-8-9-8----|
GB--7--7-5--5-5-5--5-5-7-8-7----|
Db--7--7-5--5-5-3--3-3-5-6-5----|
Ab--5--5-3--3-3-----------------|
Db------------------------------|
       .   . .     . .

Intro 4
Eb----------------------------------|
Bb----------------8-8-8-8-8-8-9-8/3-|
GB--7--7-5--5-5---------------------|
Db--7--7-5--5-5---------------------|
Ab--5--5-3--3-3---------------------|
Db----------------------------------|
       .   . .

Intro 5
Eb------------------------|
Bb------------------------|
GB--7---5-----------------|
Db--7---5---5----6-5-3-0--|
Ab--5---3---5----6-5-3-0--|
Db----------5----6-5-3-0--|

Verse 1
Eb-----------------------------------------|
Bb-----------------------------------------|
GB-----------------------------------------|
Db--3--0-0--3-0-0-0-0--3--0-0--3--0-0-5----|
Ab--3--0-0--3-0-0-0-0--3--0-0--3--0-0-5----|
Db--3--0-0--3-0-0-0-0--3--0-0--3--0-0-5----|
       . .    . . . .     . .     . .

Verse 2
Eb--------------------------------------------|
Bb--------------------------------------------|
GB----------------------------------<5>--<7>--|
Db--3--0-0--3-0-0-0-0--3--0-0--3-0------------|
Ab--3--0-0--3-0-0-0-0--3--0-0--3-0------------|
Db--3--0-0--3-0-0-0-0--3--0-0--3-0------------|
       . .    . . . .     . .    .

Verse 3
Eb--------------------------------------------|
Bb--------------------------------------------|
GB--------------------------------------------|
Db--3--0-0--3-0-0-0-0--3--0-0--3--0---0-0-0-0-|
Ab--3--0-0--3-0-0-0-0--3--0-0--3--0---0-0-0-0-|
Db--3--0-0--3-0-0-0-0--3--0-0--3--0---0-0-0-0-|
       . .    . . . .     . .     .   . . . .

Verse 4
Eb------------------------------------------|
Bb------------------------------------------|
GB------------------------------------------|
Db--3--0-0--3-0-0-0-0--3--0-0--3--0---0-0-0-|
Ab--3--0-0--3-0-0-0-0--3--0-0--3--0---0-0-0-|
Db--3--0-0--3-0-0-0-0--3--0-0--3--0---0-0-0-|
       . .    . . . .     . .     .   . . .

Verse 5
Eb-----------------------------------------|
Bb-----------------------------------------|
GB-----------------------------------------|
Db--3--0-0--3-0-0-0-0--3--0-0--3--0-0------|
Ab--3--0-0--3-0-0-0-0--3--0-0--3--0-0-<5>--|
Db--3--0-0--3-0-0-0-0--3--0-0--3--0-0------|
       . .    . . . .     . .     . .

Pre-Chorus
Eb-------------------------------------------|
Bb----------------------3--------------------|
GB----------------------2--------------------|
Db--6---6--5---5--3--0--0--3--0---3-0-0-0----|
Ab--6---6--5---5--3--0-----3--0---3-0-0-0----|
Db--6---6--5---5--3--0-----3--0---3-0-0-0----|
                                    . . .
Chorus 1
Eb--------------------------------------|
Bb--------------------------------------|
GB--------------------------------------|
Db-0-0-1--0-0-1--0-0-1--0-0-1--0-0------|
Ab-0-0-1--0-0-1--0-0-1--0-0-1--0-0--<5>-|
Db-0-0-1--0-0-1--0-0-1--0-0-1--0-0------|
   . .    . .    . .    . .    . .

Chorus 2
Eb-----------------------------------------|
Bb-----------------------------------------|
GB--------------------------------<5>--<7>-|
Db-0-0-1--0-0-1--0-0-1--0-0-1--0-----------|
Ab-0-0-1--0-0-1--0-0-1--0-0-1--0-----------|
Db-0-0-1--0-0-1--0-0-1--0-0-1--0-----------|
   . .    . .    . .    . .    .

Chorus 3
Eb--------------------------------------|
Bb--------------------------------------|
GB--------------------------------------|
Db-0-0-1--0-0-1--0-0-1--0-0-1--0-0-1----|
Ab-0-0-1--0-0-1--0-0-1--0-0-1--0-0-1----|
Db-0-0-1--0-0-1--0-0-1--0-0-1--0-0-1----|
   . .    . .    . .    . .    . .

Ending
Eb--------------------------------------------------|
Bb--------------------------------------------------|
GB--------------------------------------------------|
Db-0--3--5--6---0--3--5--6---0--3--5--6---3--0--0-0-|
Ab-0--3--5--6---0--3--5--6---0--3--5--6---3--0--0-0-|
Db-0--3--5--6---0--3--5--6---0--3--5--6---3--0--0-0-|
                                                .
Solo1

Eb---------------------------------------|
Bb-8--6--<8>--6--------------------------|
GB--------------7-5---5-7-<7>------------|
Db------------------7--------------------|
Ab---------------------------------------|
Db---------------------------------------|


Order: (it's actually easier than it looks like, trust me :P)
Intro 1
Intro 2
Intro 3
Intro 2
Intro 4
Intro 2
Intro 3
Intro 2
Intro 6
Verse 1
verse 2 Solo1
Verse 1
Verse 3
Verse 1
Verse 4
Pre-Chorus
Chorus 1
Chorus 2
Chorus 1
Chorus 3
Intro 2
Intro 3
Intro 2
Intro 4
Verse 5
Verse 2
Verse 1
Verse 3
Verse 1
Verse 4
Pre-Chorus
Chorus 1
Chorus 2
Chorus 1
Chorus 3
Verse 1
Verse 3
Verse 1
Verse 4
Pre-Chorus
Chorus 3
Chorus 1
Chorus 2
Chorus 1
Chorus 3
Ending

That's it :) comments and suggestions at alex_omul@yahoo.com
Добавлено: 23.02.2012
Другие материалы по этой песне:
  • Аккорды и текст

Страница создана 23.02.2012
http://primanota.ru/disciple/take-me-chords.htm
Привет, Гость.
Предлагаем пройти революционный курс по гитаре.
Подарок от PrimaNota.Ru, забирай!