PrimaNota.ru - самый крупный в мире бесплатный архив песенных текстов, аккордов, табулатур и нот


Disciple - Romance Me - текст песни, таба, видео

Регистрация Запомнить меня
Войти через:  Facebook Google Twitter Vk Yandex Mail.ru

Disciple - Romance Me - текст песни, таба, видео

Печатать
Просмотров: 101
Уроки эстрадного вокала в Санкт-Петербурге
Tuning: CGCFAD

 / slide up
 \ slide down
 ~ tremolo
 * tremolo picking
 h hammer-on
 p pull-off
 b bend

Intro 0:00-0:22
Gtr. 1 (Rhythym)
D|-------------------------------------------------------------------|
A|-------------------------------------------------------------------|
F|---------------------------------/7--------------------------------|
C|---10\---------------------------/7--------------------------------|
G|---10\--4-4-7-4--4-7-4--4-7-4--4-/5--4-4-7-4--4-7-4--4-7-4--4-7\---|
C|---10\--4-4-7-4--4-7-4--4-7-4--4-----4-4-7-4--4-7-4--4-7-4--4-7\---|

|-----------------------------------------------------------------|
|-----------------------------------------------------------------|
|-----------------------------------------------------------------|
|---7-7-7-7-7-7-7-7-6-6-6-6-7-7-7-7-6-6-6-6-7-7-7-7-6-6-6-6--7~~--|
|---5-5-5-5-5-5-5-5-5-5-5-5-5-5-5-5-7-7-7-7-7-7-7-7-7-7-7-7--7----|
|-----------------------------------------------------------------|

|--------------------------------------------------------------------------|
|------------------------------------------------------------6/7-7-7-7-7\--|
|---------------------------------/7-------------------------5/6-6-6-6-6\--|
|---------------------------------/7---------------------------------------|
|---7\---4-4-7-4--4-7-4--4-7-4--4-/5--4-4-7-4--4-7-4--4-7-4----------------|
|---7\---4-4-7-4--4-7-4--4-7-4--4-----4-4-7-4--4-7-4--4-7-4----------------|

|------------------------------------------------------------------|
|------------------------------------------------------------------|
|------------------------------------------------------------------|
|---7-7-7-7-7-7-7-7-6-6-6-6-7-7-7-7-6-6-6-6-7-7-7-7-6-6-6-6--6~~7--|
|---5-5-5-5-5-5-5-5-5-5-5-5-5-5-5-5-7-7-7-7-7-7-7-7-7-7-7-7--------|
|------------------------------------------------------------------|

Gtr. 2 (Lead)
|------------------------------------------------------|
|--------7-7-7-7-9-9-9-9-10-10-10-10-12-12-12-12/14----|
|--------6-6-6-6-6-6-6-6-9--9--9--9--9--9--9--9--------|
|---10\------------------------------------------------|
|---10\------------------------------------------------|
|---10\------------------------------------------------|

|---5-5-5-5-5-5-5-5-4-4-4-4-5-5-5-5-4-4-4-4-5-5-5-5-4-4-4-4--------|
|---3-3-3-3-3-3-3-3-3-3-3-3-5-5-5-5-5-5-5-5-5-5-5-5-5-5-5-5--/10~~-|
|------------------------------------------------------------------|
|------------------------------------------------------------------|
|------------------------------------------------------------------|
|------------------------------------------------------------------|

|------------------------------------------------------|
|--------7-7-7-7-9-9-9-9-10-10-10-10-12-12-12-12/14----|
|--------6-6-6-6-6-6-6-6-9--9--9--9--9--9--9--9--------|
|------------------------------------------------------|
|------------------------------------------------------|
|------------------------------------------------------|

|---5-5-5-5-5-5-5-5-4-4-4-4-5-5-5-5-4-4-4-4-5-5-5-5-4-4-4-4--------|
|---3-3-3-3-3-3-3-3-3-3-3-3-5-5-5-5-5-5-5-5-5-5-5-5-5-5-5-5--9~~10-|
|------------------------------------------------------------------|
|------------------------------------------------------------------|
|------------------------------------------------------------------|
|------------------------------------------------------------------|

Verses 1 0:22-0:43
Gtr. 1
|------------|------------------------------------|
|----Rep.----|------------------------------------|
|----12x-----|------------------------------------|  Rep 2x
|------------|------------------------------------|
|------------|-----------2-2-2-2---------4-4-4-4--|
|---7-6-4-6--|---0-0-0-0---------0-0-0-0----------|
PM  . . . .      . . . .         . . . .

      Gtr. 2 comes in at 0:33
|-----------------------------------------|
|---10-10-10-9-9-9-7-7-7-7-7-7-7-7-7-7-7--|
|---9--9--9--9-9-9-9-9-9-6-6-6-4-4-4-6-6--|
|-----------------------------------------|
|-----------------------------------------|
|-----------------------------------------|
PM  .  .  .  . . . . . . . . . . . . . .

Pre-Chorus 0:44-0:54
Gtr. 1
|-------------------------------|
|-------------------------------|
|-------------------------9b-9--|
|---x-4----7----2----9----9b-9--|
|---x-4----7----2----9----------|
|---x-4----7----2----9----------|

|------------------------------|
|------------------------------|
|------------------------------|
|---x-4----7----2----9---------|
|---x-4----7----2----9----10\--|
|---x-4----7----2----9---------|

Gtr. 2
|-----------------------------------------------------------------------------------|
|-----------------------------------------------------------------------------------|
|---x-11-11-11-11-11-11-11-14-14-14-14-14-14-14-9-9-9-9-9-9-9-16-16-16-16-16-16-16--|
|---x-11-11-11-11-11-11-11-14-14-14-14-14-14-14-9-9-9-9-9-9-9-16-16-16-16-16-16-16--|
|---x-9--9--9--9--9--9--9--12-12-12-12-12-12-12-7-7-7-7-7-7-7-14-14-14-14-14-14-14--|
|-----------------------------------------------------------------------------------|

|-------------------------|
|-------------------------|
|-------------------------|
|-------------------------|
|---14h16-16-14h16p14-12--|
|-------------------------|

|-------------------------------------------------------------------------------------|
|-------------------------------------------------------------------------------------|
|--x-11-11-11-11-11-11-11-14-14-14-14-14-14-14-9-9-9-9-9-9-9-16-16-16-16-16-16-16-----|
|--x-11-11-11-11-11-11-11-14-14-14-14-14-14-14-9-9-9-9-9-9-9-16-16-16-16-16-16-16-10\-|
|--x-9--9--9--9--9--9--9--12-12-12-12-12-12-12-7-7-7-7-7-7-7-14-14-14-14-14-14-14-----|
|-------------------------------------------------------------------------------------|

Chorus same as Intro 0:55-1:16

Verse 2 1:17-1:27
Both guitars.
|------------|
|----Rep.----|
|----12x-----|
|------------|
|------------|
|---7-6-4-6--|
PM  . . . .

0:28
Gtr. 1
|----------------------------------------------------------------|
|------------------------------------------------------/7-7-7-7--|
|------------------------------------------------------/6-6-6-6--|
|---7p4---scratch\--7p4----------7p4---scratch\---7p4------------|
|---7p4-------------7p4----------7p4---scratch\---7p4------------|
|---7p4-------------7p4---/9b~---7p4--------------7p4------------|

Gtr.2
|----------------------------------------------------------------------------------|
|---10\7~~-7\------------10\7~~-7\--------10\7~-5-7--5-9b~---10\7~~-7\---/7-7-7-7--|
|----9\6~~-6\-------------9\6~~-6\---------9\6~---6----9b~----9\6~~-6\---/6-6-6-6--|
|--------------scratch\-------------/9b~-------------------------------------------|
|----------------------------------------------------------------------------------|
|----------------------------------------------------------------------------------|


Pre-chorus
Chorus

Solo 2:11

Gtr. 1
|----------------------------------|
|--------------2-------------------|
|------7----4----4------------9----| 2x
|-----7----4---------4-----7----7--|
|----5----2---------4-----7--------|
|------------------4-----7---------|

|-------------------------------|
|-------------------------------|
|----7------4-------------------|
|----7------4------4-----7------|
|----5------2------4-----7------|
|------------------4-----7------|

Gtr. 2
|------------------------12---------------------------|
|--------------------/10----13p10----10~--------------|
|--9-11-/14~~~\--9-11-------------11-----11p9h11~~~~--|
|-----------------------------------------------------|
|-----------------------------------------------------|
|-----------------------------------------------------|

|--16/17\16------------------------------------------------|
|------------14------------------10-12-/17-----------------|
|--------------14p11h14p11--9-11-----------14-------14~~\--|
|---------------------------------------------16-14--------|
|----------------------------------------------------------|
|----------------------------------------------------------|

|-----------------------------------------------------------------|
|--/14-14-14~\--(14)---15-14--------------12/14-15-14-------------|
|------------------(11)------12-14---14~~--------------14-12-14~~-|
|---------------------------------14------------------------------|
|-----------------------------------------------------------------|
|-----------------------------------------------------------------|

|--------------------------------------------------------------------|
|---14----12*-14*-----12*-14*-----12*-14*-------14-------------------|
|------14*--------14*---------14*------------------14*---------------|
|----------------------------------------------------------scratch\--|
|--------------------------------------------------------------------|
|--------------------------------------------------------------------|

Outro
Both Guitars
|-------------------------------------------------------------------|
|-------------------------------------------------------------------|
|-------------------------------7-----------------------------------|
|-------------------------------7-----------------------------------|
|-------------------------------5-----------------------------------|
|---4-4h7-4---4h7-4---4h7-4---4----4-4h7-4---4h7-4---4h7-4---4-10b--|

Gtr. 1
|------------------------------------------------------------|
|------------------------------------------------------------|
|------------------------------------------------------------|
|---7-7-7-7-7-7-7-7-6-6-6-6-7-7-7-7-6-6-6-6-7-7-7-7-6-6-6-6--|
|---5-5-5-5-5-5-5-5-5-5-5-5-5-5-5-5-7-7-7-7-7-7-7-7-7-7-7-7--|
|------------------------------------------------------------|

|------------------------------------------------------------|
|------------------------------------------------------------|
|---------------------------------/7-------------------------|
|---------------------------------/7-------------------------|
|---7\---4-4-7-4--4-7-4--4-7-4--4-/5--4-4-7-4--4-7-4--4-7-4--|
|---7\---4-4-7-4--4-7-4--4-7-4--4-----4-4-7-4--4-7-4--4-7-4--|

|------------------------------------------------------------|
|------------------------------------------------------------|
|------------------------------------------------------------|
|---7-7-7-7-7-7-7-7-6-6-6-6-7-7-7-7-6-6-6-6-7-7-7-7-6-6-6-6--|
|---5-5-5-5-5-5-5-5-5-5-5-5-5-5-5-5-7-7-7-7-7-7-7-7-7-7-7-7--|
|------------------------------------------------------------|

Gtr. 2
|---5-5-5-5-5-5-5-5-4-4-4-4-5-5-5-5-4-4-4-4-5-5-5-5-4-4-4-4--|
|---3-3-3-3-3-3-3-3-3-3-3-3-5-5-5-5-5-5-5-5-5-5-5-5-5-5-5-5--|
|------------------------------------------------------------|
|------------------------------------------------------------|
|------------------------------------------------------------|
|------------------------------------------------------------|

|------------------------------------------------------|
|--------7-7-7-7-9-9-9-9-10-10-10-10-12-12-12-12/14----|
|--------6-6-6-6-6-6-6-6-9--9--9--9--9--9--9--9--------|
|------------------------------------------------------|
|------------------------------------------------------|
|------------------------------------------------------|

|---5-5-5-5-5-5-5-5-4-4-4-4-5-5-5-5-4-4-4-4-5-5-5-5-4-4-4-4--|
|---3-3-3-3-3-3-3-3-3-3-3-3-5-5-5-5-5-5-5-5-5-5-5-5-5-5-5-5--|
|------------------------------------------------------------|
|------------------------------------------------------------|
|------------------------------------------------------------|
|------------------------------------------------------------|

Both Guitars
|-----------------------------------------------------|
|-----------------------------------------------------|
|-----------------------------------------------------|
|-----------------------------------------------------|  Rep 3x
|-----------------------------------------------------|
|---7-4-4---0-7-4-4---4-2~~--7-4-4---0-7-4-4---4-0----|

End
|------------------------------------------|
|------------------------------------------|
|------------------------------------------|
|------------------------------------------|
|------------------------------------------|
|---7-4-4---0-7-4-4---4-2~~--7-4-4---2-4---|

Sorry If you don't like the way I broke up the guitar parts
Добавлено: 14.04.2012
Другие материалы по этой песне:
  • Аккорды и текст

Страница создана 14.04.2012
http://primanota.ru/disciple/romance-me-chords.htm
Привет, Гость.
Предлагаем пройти революционный курс по гитаре.
Подарок от PrimaNota.Ru, забирай!