PrimaNota.ru - самый крупный в мире бесплатный архив песенных текстов, аккордов, табулатур и нот


Disciple - Shine Down - текст песни, бас-таба, видео

Регистрация Запомнить меня
Войти через:  Facebook Google Twitter Vk Yandex Mail.ru

Disciple - Shine Down - текст песни, бас-таба, видео

Печатать
Просмотров: 102
Tabbed By: rahkshinaw
youtube.com/user/rahkshinaw
esrock.net

Band:  Disciple
Song:  Shine Down
Tuning: C-G-C-F

INTRO: x2
F---------------------------------------------------------|
C---------------------------------------------------------|
G---------------------------------------------------------|
C-00--00--00--00----00--00--00--00------------------------|

VERSE (x7)
F---------------------------------------------------------|
C---------------------------------------------------------|
G---------------------------------------------------------|
C--1-0--0-1-1-0-0-4-3-------------------------------------|

PRE-CHORUS: x2
F---------------------------------------------------------|
C---------------------------------------------------------|
G---------------------------------------------------------|
C--0--1-1--0-0--------------------------------------------|

CHORUS; (x2)
F-------------------------------------------------------------------|
C-------------------------------------------------------------------|
G-0000000000000000-------------------33333333-----------------------|
C-------------------3333333333333333----------2222222222222222------|

INTRO
VERSE
CHORUS

BRIDGE:
F---------------------------------------------------------|
C---------------------------------------------------------|
G---------------------------------------------------------|
C--0-0--0-0--0-0--0-0--2-3--0-0--0-0--0-0-0-0-2-5---------|

F-----------------------------------------------------------|
C-----------------------------------------------------------|
G-----------------------------------------------------------|
C-0-0--0-0--0-0--0-0-2-3--0-0--0-0--0-0--0-0--3-2/7~--------|

CHORUS
OUTRO
F---------------------------------------------------------|
C---------------------------------------------------------|
G---------------------------------------------------------|
C--0-0--0-0--0-0--0-0-2-3--0-0--0-0--0-0--0-0-2-5---------|

F---------------------------------------------------------|
C---------------------------------------------------------|
G---------------------------------------------------------|
C--0-0--0-0--0-0--0-0-2-3--0-0--0-0--0000-0-0-------------|
Добавлено: 17.04.2012
Другие материалы по этой песне:
  • Аккорды и текст

Страница создана 18.03.2012
http://primanota.ru/disciple/shine-down-chords.htm
Привет, Гость.
Предлагаем пройти революционный курс по гитаре.
Подарок от PrimaNota.Ru, забирай!