PrimaNota.ru - самый крупный в мире бесплатный архив песенных текстов, аккордов, табулатур и нот


Disciple - Deafening - текст песни, таба, видео

Регистрация Запомнить меня
Войти через:  Facebook Google Twitter Vk Yandex Mail.ru

Disciple - Deafening - текст песни, таба, видео

Печатать
Просмотров: 438
Song: Deafening
Band: Disciple
Album: Horseshoes and Handgrenades (2010)
Tabbed by: JRedDisciple
Drop C (C,G,C,F,A,D)

(Guitar 1)
Intro
D ---------------------------|
A ---------------------------|
F --10-10 12-10-12b-12-10----|    8x
C ---------------------------|
G ---------------------------|
C ---------------------------|

(Guitar 2)
Intro
D -----------------------------------------------|
A -----------------------------------------------|
F --------------66-66-66-66----------------------|
C -33-33-33-33--66-66-66-66--88-88-88-88---6-5---|    
G -33-33-33-33--44-44-44-44--88-88-88-88---6-5---|
C -33-33-33-33---------------88-88-88-88---6-5---|

(Guitar 1)
Verse
D --------------------13---|      ----------------------------------|
A --13-------11-13----13---|      -14---13--------------------------|
F -----13-10---------------| 3x   ----16---13-10-13-15-17-18-17-----|
C -------------------------|      ----------------------------------|
G -------------------------|      ----------------------------------|
C -------------------------|      ----------------------------------|
(On a road to nowhere...)

(Guitar 2, halfway through)
Verse
D ------------------------------------------------------------------------|
A ------------------------------------------------------------------------|
F ------------------------------------------------------------------------|
C ------------------------------------------------------------------------|
G ------------------------------------------------------------------------|
C --333333333-66666666-8888888-10101010101010-----------------------------|
pm  ********* ******** ******* **************


(Guitar 1)
Chorus
D ---------------------------------------------------------|
A --14-13-14-13 (all the way through chorus)---------------|
F ---------------------------------------------------------|
C ---------------------------------------------------------|
G ---------------------------------------------------------|
C ---------------------------------------------------------|
(Every time I run away...)

(Guitar 2)
Chorus
D -----------------|
A -----------------|
F -----6-----------|4x   (3rd time, do 4 scratches after 8, then 8 
C --3--6--8--6--5--|         again, 4 scratches again, then 6, 5)
G --3--4--8--6--5--|
C --3-----8--6--5--|

Verse same

Chorus

Bridge (Both guitars)
D -----------------------------------|
A -----------------------------------|
G -6--8--10-----5-----10-----5-------|
C -6--8--10--3--5--6--10--3--5--6----|
G -4--6--8---3--3--6--8---3--3--6----|
C -----------3-----6------3-----6----|
(You're never too far away...)

D ------------------------------------|
A ------------------------------------|
F -6--8--8/10--10\8--10--8--10--8-----|
C -6--8--8/10--10\8--10--8--10--8-----|    2x
G -4--6--6/8----8\6---8--6--8---6-----|
C ------------------------------------|

Chorus then

(Guitar 1)
D ---------------------------|
A ---------------------------|
F --10-10 12-10-12b-12-10----|    8x
C ---------------------------|
G ---------------------------|
C ---------------------------|

(Guitar 2)
D -----------------------------------------------|
A -----------------------------------------------|
F --------------66-66-66-66----------------------|
C -33-33-33-33--66-66-66-66--88-88-88-88---6-5---|    
G -33-33-33-33--44-44-44-44--88-88-88-88---6-5---|
C -33-33-33-33---------------88-88-88-88---6-5---|







Both Guitars
D --------------------|
A --------------------|
F --------------------|
C -33-33-33-33--------|
G -33-33-33-33--------|
C -33-33-33-33--------|

Done! Enjoy, rock hard for Jesus and God Bless!!
Добавлено: 23.03.2012
Другие материалы по этой песне:
  • Аккорды и текст

Страница создана 23.03.2012
http://primanota.ru/disciple/deafening-chords.htm
Привет, Гость.
Предлагаем пройти революционный курс по гитаре.
Подарок от PrimaNota.Ru, забирай!