PrimaNota.ru - самый крупный в мире бесплатный архив песенных текстов, аккордов, табулатур и нот


Disciple - 1-2 Conductor - текст песни, таба, видео

Регистрация Запомнить меня
Войти через:  Facebook Google Twitter Vk Yandex Mail.ru

Disciple - 1-2 Conductor - текст песни, таба, видео

Печатать
Просмотров: 146
  Song:1-2 Conductor
  Band:Disciple
  CD:This Might Sting A Little
  Copyright:c 1999 Rugged Records
  Tabbed by Ed Morones
   I tabbed this in standard although it is drop D

   INTRO:
   One Two


  e---------------------------------|Riff 1:
  B---------------------------------|Play
  G---------------------------------|8x's
  D---------2--2--2--3--3--x-x------|
  A---------2--2--2--3--3--x-x------|
  E---------0--0--0--1--1--0-0------|

   VERSE:
    What if the whole world got on their feet and begin to cheer
  e-------------------------------------------------------------|
  B-------------------------------------------------------------|
  G-------------------------------------------------------------|
  D-------------------------------------------------------------|
  A-------------------------------------------------------------|
  E-00--0----0---0----0------0--0--1----00-----0---0-----0--0---|


    for me
  e------------------------|
  B-----------play-riff-1--|This is how you play all the verses.
  G-----------4x's---------|although just before the chorus play
  D-----2--2--2--3--3--x-x-|riff 1 8x's.
  A-----2--2--2--3--3--x-x-|
  E-3---0--0--0--1--1--0-0-|

   PRE-CHORUS:
    If I never       please anyone      may I please you
  e------------------------------------------------------------|
  B------------------------------------------------------------|
  G------------------------------------------------------------|
  D-----------p.m.---------------------------------------p.m.--|
  A------------------------------------------------------------|
  E-5--0--5-0-0000---5-------0-5-0-5b7---5---0--5----0---0000--|



                    CHORUS:play chorus 2x's

     JESUS                         I watch the curtain open up
  e------------------|----------1------------------------------|
  B------------------|----------1------------------------------|
  G------------------|----------2------------------------------|
  D------------------|--0--2--3----3--3-----3---3--3---3-3---3-|
  A------7---77-7-77-|--0--2--3----3--3-----3---3--3---3-3---3-|
  E--5p0-5---55-5-55-|--------1----1--1-----1---1--1---1-1---1-|

                                      | 1st. time----------------|
      as I    stand in front           my only audience
  e---------------------------------------------------------------|
  B---------------------------------------------------------------|
  G---------------------------------------------------------------|
  D-----------0-----2---3----2--0--2------------------------------|
  A---3333----0-----2---3----2--0--2------------------------------|p.m.......
  E---1111---------------------------------------------0000-0000--|

      | 2nd. time------|
       my only audience
  e-------------------|-----------|
  B-------------------|-----------|
  G-------------------|-----------|
  D-------------------|-----------|
  A-------------------------------|p.m......
  E---0----5-0--5/12\-|-00001000--|play this 8x's back to verse

  After 2nd chorus there is no solo they play an interlude
   starting with the bass here's what he plays.
  INTERLUDE:
  E|-000010000/3|000010000/3|000010000/3|000010000/3-|

  E|-000010000/3|000010000/3|000010000/3|000010000/3-|
   |            |         |         |             |
   |            |         |         |             |  Bass &Gtr.
   |            |         |         |             |  together
   |            |         |         |             |
   |            |         |         |hold notes   |
  e|------------|---------|---------|-------------|
  B|------------|---------|-8-10-11-|-(11)--------|
  G|------------|---------|-7--9-10-|-(10)--------|
  D|------------|---------|---------|-------------|
  A|------------|---------|---------|-------------|
  E|------------|---------|---------|-------------|




   Bass & guitar play same notes

  e-------------------------------------|-------------------|
  B-------------------------------------|-------------------|
  G-------------------------------------|-------------------|
  D-------------------------------------|-------------------|
  A-------------------------------------|-------------------|
  E--0--0--1--0--0--1--0--0--1--0--0--1-|-00001000-00001000-|

  e--------------|
  B--------------|
  G--------------|play 6x's
  D--------------|
  A--------------|
  E--000010000/3-|
  From here go to pre chorus & chorus


  ENDING:--3x's--------------|
     My only audience        |
  e--------------------------|-------------------------------------|
  B--------------------------|-------------------------------------|
  G--------------------------|-------------------------------------|
  D--------------------------|-------------------------------------|
  A--------------------------|-------------------------------------|
  E--0---5-0--5-0-----000010-|-0h5-0h5-0h5-0h5-0h5-0h5-0h5-0h5-0h5-|


                  GO!
  e--------------|--------------------|
  B--------------|--------------------|play riff 1
  G--------------|--------------------| 4x's
  D--------------|-2--2--2--3--3--x-x-|
  A--------------|-2--2--2--3--3--x-x-|
  E--0h5-0h5-0h5-|-0--0--0--1--1--0-0-|


  Any Q's or com's email Ed at
  5150rocker@sbcglobal.net
Добавлено: 15.04.2012
Другие материалы по этой песне:
  • Аккорды и текст

Страница создана 22.03.2012
http://primanota.ru/disciple/1-2-conductor-chords.htm
Привет, Гость.
Предлагаем пройти революционный курс по гитаре.
Подарок от PrimaNota.Ru, забирай!