PrimaNota.ru - самый крупный в мире бесплатный архив песенных текстов, аккордов, табулатур и нот


Disciple - 99 - текст песни, таба, видео

Регистрация Запомнить меня
Войти через:  Facebook Google Twitter Vk Yandex Mail.ru

Disciple - 99 - текст песни, таба, видео

Печатать
Просмотров: 145
Disciple - 99 from album "By God"


INTRO

D#---------------------------------------------------------------------|
A#---------------------------------------------------------------------|
F#---------------------3--5-----------------3--5-----------------------|
C#-0-3-5-------0P3h5---x--x-----0p3h50p3h5--x--x-----------------------|
G#-0-3-5-------0P3h5---1--3-----0p3h50p3h5--1--3-----------------------|
c#-0-3-5-------0P3h5------------0p3h50p3h5-----------------------------|
   P.M. x 5  No P.M.x 7   then       x 3


Verse

D#---------------------------------------------------------------------|
A#---------------------------------------------------------------------|
F#---------------------------------------------------------------------|
C#-00---88888--00-------b4-----00---66-55-3----------------------------|
G#-00---55555--00--------------00---66-55-3------b3--------------------|
C#-00---55555--00--------------00---66-55-3----------------------------|
   P.M.  x3          then       P.M.   x 3  then"Walk the Bend Slightly"

Chorus


D#---------------------------------------------------------------------|
A#---------------------------------------------------------------------|
F#----------------b5---------------------------------------------------|
C#---5-----------------------------------5------3p0h5p03p03p0h5p0------|x2
G#---5-----------------------------------5------3p0h5p03p03pOh5p0------|
C#---5-----------------------------------5------3p0h5p03p03p0h5p0------|
    Let it Ring   "Walk up" the bend      Ring


Repeat last part of intro x4 instead of 3


Then Repeat Verse


Chorus

 On the bridge just play the last part of the chorus with
all of the hammer ons and pull offs under the solo like riff.
There's also slight rhythm change in the background but the
fingerings are pretty much the same.

 I'm not positive but I think the solo is just the last part
of the chorus played at a higher octave. It starts off somewhere
around this area I think.

D#---------------------------------------------------------------------|
A#---------------------------------------------------------------------|
F#----10h12----10h12---------------------------------------------------|
C#---------h12------h12------------------------------------------------|
G#---------------------------------------------------------------------|
C#---------------------------------------------------------------------|

Chorus Again *Listen for the change in sound though*


That should be it hopefully, if not, just let me know - mohcodfan@hotmail.com God Bless!
Добавлено: 07.04.2012
Другие материалы по этой песне:
  • Аккорды и текст

Страница создана 07.04.2012
http://primanota.ru/disciple/99-chords.htm
Привет, Гость.
Предлагаем пройти революционный курс по гитаре.
Подарок от PrimaNota.Ru, забирай!