PrimaNota.ru - самый крупный в мире бесплатный архив песенных текстов, аккордов, табулатур и нот


Disciple - After The Word - таба, видео

Регистрация Запомнить меня
Войти через:  Facebook Google Twitter Vk Yandex Mail.ru

Disciple - After The Word - таба, видео

Печатать
Просмотров: 129
Band / Artist : Disciple
Song title : After The World
Album / Cd : Scars Remain
Standard Tunning

I don't think I've done all of the song, but its mostly there. Enjoy
The Chords used in this are:

:Acoustic:
Verse: 
 Bm   A   D 8x
|-2-|-0-|-2-|
|-3-|-2-|-3-|
|-4-|-2-|-2-|
|-4-|-2-|-0-|
|-2-|-0-|-x-|
|-x-|-x-|-x-|
Chorus:
  D   A    ?   A   2x
|-2-|-0-|-5\3|-0-|
|-3-|-2-|-5\3|-2-|
|-2-|-2-|-6\4|-2-|
|-0-|-2-|-7\5|-2-|
|-x-|-0-|-x\x|-0-|
|-x-|-x-|-x\x|-x-|

Bridge:
  D   A   Bm  2x
|-2-|-0-|-2-|
|-3-|-2-|-3-|
|-2-|-2-|-4-|
|-0-|-2-|-4-|
|-x-|-x-|-2-|
|-x-|-x-|-x-|

Verse: (Acoustic)
e|--2----0----2--------------------------------------|
B|--3----2----3--------------------------------------|
G|--4----2----2--------------------------------------|
D|--4----2----0--------------------------------------|
A|--2----0----x--------------------------------------|
E|--x----x----x--------------------------------------|

Transition: (Electric)

e|---------------------------------------------------|
B|---------------------------------------------------|
G|---------------------------------------------------|
D|-55555555-77777777---------------------------------|
A|-55555555-77777777---------------------------------|
E|-33333333-55555555---------------------------------|

(Acoustic)

e|--2----0----5\3----0-------------------------------|
B|--3----2----5\3----2-------------------------------|
G|--2----2----6\4----2-------------------------------|
D|--0----2----7\5----2-------------------------------|
A|--x----0----x-x----0-------------------------------|
E|--x----x----x-x----x-------------------------------|

Chorus: (Electric)

e|---------------------------------------------------|
B|---------------------------------------------------|
G|--7------------------------------------------------|
D|--7----7----78-------------------------------------|
A|--5----7----78-------------------------------------|
E|-------5----5--------------------------------------|


Добавлено: 15.05.2012
Другие материалы по этой песне:
  • Аккорды и текст

Страница создана 15.05.2012
http://primanota.ru/disciple/after-the-word-chords.htm
Привет, Гость.
Предлагаем пройти революционный курс по гитаре.
Подарок от PrimaNota.Ru, забирай!