PrimaNota.ru - самый крупный в мире бесплатный архив песенных текстов, аккордов, табулатур и нот


Disciple - 321 - текст песни, таба, видео

Регистрация Запомнить меня
Войти через:  Facebook Google Twitter Vk Yandex Mail.ru

Disciple - 321 - текст песни, таба, видео

Печатать
Просмотров: 147
Tuning: CGCFAD
Note: I edited this all in notepad, so if tab is screwed up here, I can't change that.

 / slide up
 \ slide down
 ~ tremolo
 * tremolo picking
 h hammer-on
 p pull-off
 b bend
the timing of the riff is above each bar

0:00|1:04|1:37|2:20|2:52|3:28               [1]     [2]
D|-----------------------------------------|-------|--------------|
A|-------------------/3b-------------------|-/5-3--|--------------|
F|-------------------/3b-------------------|-/5-3--|--------------|
C|-----------------------------------------|-/5-3--|---10\--------|
G|-----------------------------------------|-------|---10\--------|
C|--555-3\--/555-3\-------555-3\--/555-3\--|-------|---10\--------|

(Chorus)0:11|1:15|2:31|3:49                                      [1]       [2]
|---------------------------------------------------------------|---------|---------|
|--------------3p0---------------5-3---------------3p0----------|-----3-0-|-----5-3-|
|--------------3p0---------------5-3---------------3p0----------|-----3-0-|-----5-3-|
|---3-4-5--35-------3--4--5--35-------3--4--5--35-------3--4--5-|-10\-----|-35------|
|---3-4-5--35-------3--4--5--35-------3--4--5--35-------3--4--5-|-10\-----|-35------|
|---3-4-5--35-------3--4--5--35-------3--4--5--35-------3--4--5-|-10\-----|-35------|
      {PM} ..                ..                ..                           ..

0:34|1:48               End  Gtr.1             Gtr.2
|------------------------|--------------   |-------------|
|-----------------3------|--------------   |-------------|
|--5-3p5-3--0-----3------|--------------   |--------3h5--|
|--5-3p5-3--0--35---53---|--3---3-0-/5--   |--3-----3h5--|
|--------------35---53---|--3---3-0-/5--   |--3----------|
|--------------35---53---|--3---3-0-/5--   |--3----------|
       {PM}    ..   ..          . .

(Verse)0:45|2:00
|---------------------------------------------------|
|---------------------3b---------------------3b-----|
|---------------------3b-0--5----------------3b-0---|
|---5-3---------------------5-3---------3-5---------|
|-------5-3--5-3----------------5-3-5-3-------------|
|----------------6-5--------------------------------|
{PM}. . . .  . . . .            . . . . . .

|---------------------------------------------------|
|---------------------3b----/3--6------------3b-----|
|---------------------3b-0--/3-----5--3------3b-0---|
|---5-3----------------------------------5b---------|
|-------5-3--5-3------------------------------------|
|----------------6-5--------------------------------|
{PM}. . . .  . . . .

|------------------------------------------------|
|---------------------3b--------------------3b---|
|---------------------3b-0--5---------------3b-0-|
|--/5-3---------------------5-3---------3-5------|
|-------5-3--5-3----------------5-3-5-3----------|
|----------------6-5-----------------------------|
{PM}  . . .  . . . .            . . . . . .

|--------------------------------|
|---------------------3b----6b---|
|---------------------3b-0--4b---|
|---5-3--------------------------|
|-------5-3--5-3-----------------|
|----------------6-5-------------|
{PM}. . . .  . . . .

Second verse is played only slightly differntly, so I will not tab it.

(Solo)3:03
|----------------------------------------------------------------|
|-----------88---88---88---88-----------88---88---88---88---777--|
|--/10\---5h77-5h77-5h77-5h77-5h7-5h7-5h77-5h77-5h77-5h77-5h777--|
|--/8\-----------------------------------------------------------|
|----------------------------------------------------------------|
|----------------------------------------------------------------|

|------------------------------------------------------------|
|------------------------------------------------------------|
|---5h7-0-0-0-4h5-0-0-5h7-0-3-0-4h5-0-0-5b-------------------|
|------------------------------------------5-3---------------|
|----------------------------------------------3/---5\3\0----|
|------------------------------------------------------------|
{PM}    . . .     . .     . . .     . .

|--/15-15-14h15-15-14h15-15-14h15-15-14h15~~~---------------------------------------|
|----------------------------------------------15h18p15-13--------------------------|
|----------------------------------------------------------15-13-12-15-12-14h15-12~-|
|-----------------------------------------------------------------------------------|
|-----------------------------------------------------------------------------------|
|-----------------------------------------------------------------------------------|
                                                 {PM}    .  .  .  .

|--------13------/15-13----------------------|
|-----15----15----------13-15-13-------------|
|--12----------12----------------12-15b-15b--|
|--------------------------------------------|
|--------------------------------------------|
|--------------------------------------------|

                   Tremolo Bar Up >   [---------------------------------------|
|------------------------------13*-15-13-13-13-13-13-13-13-13-13-13(15)~~~----|
|------------------------13*15*-----------------------------------------------|
|---------------------12*-----------------------------------------------------|
|---------------13*14*--------------------------------------------------------|
|---------12*14*--------------------------------------------------------------|
|---12*14*--------------------------------------------------------------------|

3:31
|---18b--------------------------------------------------------------------|
|---17b--18------------13/15-13-14-14/15~~----------7b---------------------|
|-----------17-15-15~~~-----------------------------7b--5---5--------------|
|------------------------------------------3/-------------8---5~~~----7\---|
|------------------------------------------3/-7/10\-------------------7\---|
|---------------------------------------------7/10\------------------------|

(2x)
|-------------------------------|
|-------------------------------|
|-------------------------------|
|----5~~5~~5~~5\-8-5-7-8-5~~~---|
|-------------------------------|
|-------------------------------|

3:44(repeated)
|-------------|
|---6---6-----|
|---6h7-7-----|
|-------------|
|-------------|
|-------------|
Добавлено: 03.06.2012
Другие материалы по этой песне:
  • Аккорды и текст

Страница создана 03.06.2012
http://primanota.ru/disciple/321-chords.htm
Привет, Гость.
Предлагаем пройти революционный курс по гитаре.
Подарок от PrimaNota.Ru, забирай!