PrimaNota.ru - самый крупный в мире бесплатный архив песенных текстов, аккордов, табулатур и нот


Deftones - Lhabia - аккорды и текст, таба, бас-таба, видео

Регистрация Запомнить меня
Войти через:  Facebook Google Twitter Vk Yandex Mail.ru

Deftones - Lhabia - аккорды и текст, таба, бас-таба, видео

Печатать
Просмотров: 277
Уроки эстрадного вокала в Санкт-Петербурге
Авторы: Deftones

Lhabia
Deftones
		   BAND:Deftones
ALBUM:Around The Fur
SONG:Lhabia

Tuning:- (half a step down and then "Dropped D")

1:Eb  4:Db
2:Bb  5:Ab
3:GB  6:Db

Intro: (Distortion and Palm Muting)
Eb---------------------------------------|
Bb---------------------------------------|
Gb---------------------------------------|
Db--0-2-2-2--0-2-2-2--0-2-2-2--0--3-3-3--|
Ab--0-2-2-2--0-2-2-2--0-2-2-2--0---------|
Db--0-2-2-2--0-2-2-2--0-2-2-2--0---------|  }
                                            }
P.M.----------------------------|           } (This is all one measure)
                                            }      play four times
Eb--------------------------------------|   }
Bb--------------------------------------|
Gb--------------------------------------|
Db--0-2-2-2--0-2-2-2--0-2-2-2-2--0-0-0--|
Ab--0-2-2-2--0-2-2-2--0-2-2-2-2--0-0-0--|
Db--0-2-2-2--0-2-2-2--0-2-2-2-2--0-0-0--|

P.M.----------------------------------|


Verse: (whispered lyrics and joined by Bass)

Eb---------------------------------------|
Bb---------------------------------------|
Gb---------------------------------------|
Db--0-2-2-2--0-2-2-2--0-2-2-2--0--3-3-3--|
Ab--0-2-2-2--0-2-2-2--0-2-2-2--0---------|
Db--0-2-2-2--0-2-2-2--0-2-2-2--0---------|  }
                                            }
P.M.----------------------------|           }  Same as above Play four times
                                            }
Eb--------------------------------------|   }
Bb--------------------------------------|
Gb--------------------------------------|
Db--0-2-2-2--0-2-2-2--0-2-2-2-2--0-0-0--|
Ab--0-2-2-2--0-2-2-2--0-2-2-2-2--0-0-0--|
Db--0-2-2-2--0-2-2-2--0-2-2-2-2--0-0-0--|

P.M.----------------------------------|

Chorus:

Eb----------------------------|
Bb----------------------------|
Gb----------------------------| X4
Db--4/6-6-6-6--X-X--7--X-X-2--|
Ab--4/6-6-6-6--X-X--7--X-X-2--|
Db--4/6-6-6-6--X-X--7--X-X-2--|


Interlude:(same as intro, no bass here)

Eb---------------------------------------|
Bb---------------------------------------|
Gb---------------------------------------|
Db--0-2-2-2--0-2-2-2--0-2-2-2--0--3-3-3--|
Ab--0-2-2-2--0-2-2-2--0-2-2-2--0---------|
Db--0-2-2-2--0-2-2-2--0-2-2-2--0---------|  }
                                            }
P.M.----------------------------|           }   X2
                                            }
Eb--------------------------------------|   }
Bb--------------------------------------|
Gb--------------------------------------|
Db--0-2-2-2--0-2-2-2--0-2-2-2-2--0-0-0--|
Ab--0-2-2-2--0-2-2-2--0-2-2-2-2--0-0-0--|
Db--0-2-2-2--0-2-2-2--0-2-2-2-2--0-0-0--|

P.M.----------------------------------|




Verse 2: (whispered lyrics and joined by Bass)

Eb---------------------------------------|
Bb---------------------------------------|
Gb---------------------------------------|
Db--0-2-2-2--0-2-2-2--0-2-2-2--0--3-3-3--|
Ab--0-2-2-2--0-2-2-2--0-2-2-2--0---------|
Db--0-2-2-2--0-2-2-2--0-2-2-2--0---------|  }
                                            }
P.M.----------------------------|           }  X4
                                            }
Eb--------------------------------------|   }
Bb--------------------------------------|
Gb--------------------------------------|
Db--0-2-2-2--0-2-2-2--0-2-2-2-2--0-0-0--|
Ab--0-2-2-2--0-2-2-2--0-2-2-2-2--0-0-0--|
Db--0-2-2-2--0-2-2-2--0-2-2-2-2--0-0-0--|

P.M.----------------------------------|


Chorus:

Eb----------------------------|
Bb----------------------------|
Gb----------------------------| X8
Db--4/6-6-6-6--X-X--7--X-X-2--|
Ab--4/6-6-6-6--X-X--7--X-X-2--|
Db--4/6-6-6-6--X-X--7--X-X-2--|


Bridge: (Shouted Lyrics)

Eb--------------------------------------------------|
Bb--------------------------------------------------|
Gb--------------------------------------------------| X2
Db--7-7-7-7-7-7-7-7--6-6-6-6-6-6-6-6--X-2-2----0-0--|
Ab--7-7-7-7-7-7-7-7--6-6-6-6-6-6-6-6--X-2-2----0-0--|
Db--7-7-7-7-7-7-7-7--6-6-6-6-6-6-6-6--X-2-2----0-0--|

Eb-------------------------------------------|
Bb-------------------------------------------|
Gb-------------------------------------------|  X1
Db--7-7-7-7-7-7-7-7--6-6-6-6-6-6-6-6--X-2-2--|
Ab--7-7-7-7-7-7-7-7--6-6-6-6-6-6-6-6--X-2-2--|  Let Ring...
Db--7-7-7-7-7-7-7-7--6-6-6-6-6-6-6-6--X-2-2--|


Chorus: (Muted)

Eb----------------------------|
Bb----------------------------|
Gb----------------------------| X4
Db--4/6-6-6-6--X-X--7--X-X-2--|
Ab--4/6-6-6-6--X-X--7--X-X-2--|
Db--4/6-6-6-6--X-X--7--X-X-2--|



Verse 3: (whispered lyrics and Bass)

Eb---------------------------------------|
Bb---------------------------------------|
Gb---------------------------------------|
Db--0-2-2-2--0-2-2-2--0-2-2-2--0--3-3-3--|
Ab--0-2-2-2--0-2-2-2--0-2-2-2--0---------|
Db--0-2-2-2--0-2-2-2--0-2-2-2--0---------|  }
                                            }
P.M.----------------------------|           }  X4
                                            }
Eb--------------------------------------|   }
Bb--------------------------------------|
Gb--------------------------------------|
Db--0-2-2-2--0-2-2-2--0-2-2-2-2--0-0-0--|
Ab--0-2-2-2--0-2-2-2--0-2-2-2-2--0-0-0--|
Db--0-2-2-2--0-2-2-2--0-2-2-2-2--0-0-0--|

P.M.----------------------------------|


Chorus:

Eb----------------------------|
Bb----------------------------|
Gb----------------------------| X8
Db--4/6-6-6-6--X-X--7--X-X-2--|
Ab--4/6-6-6-6--X-X--7--X-X-2--|
Db--4/6-6-6-6--X-X--7--X-X-2--|


Outro: (Play this again once)

Eb----------------------------------------------------|
Bb----------------------------------------------------|
Gb----------------------------------------------------|  Let ring...
Db--7-7-7-7-7-7-7-7--6-6-6-6-6-6-6-6--X-2-2-----0-0---|
Ab--7-7-7-7-7-7-7-7--6-6-6-6-6-6-6-6--X-2-2-----0-0---|
Db--7-7-7-7-7-7-7-7--6-6-6-6-6-6-6-6--X-2-2-----0-0---|




Lyrics:

Intro:

Somewhere, outside.
There are tricks and evil
Holler, downstairs
While I drive

Verse 1:

I want to watch you buttercup ( it's not all written
coming through the fog          down for the verses)

Chorus:

Dying of boredom,
I'll try it all.

Interlude:

Sixteen,
Olive,
Bound by a voice.

Verse 2:

I don't want to go
But I want it,
At least you fucking care.

Chorus:

Dying of boredom,
I'll try it all.
I'll be faint,
Like a crook.

Bridge: (shouted)
It looks and feels great
But look what it's doing to you      X3
But that's OK look at how it feels...

Verse 3:
(not printed)

Chorus:
Dying of boredom,
I'll try it all.
I'll be faint,
Like a crook...

Outro: (same as bridge played once)
It looks and feels great
But look what it's doing to you
But that's OK look at how it feels

*please note*
The verses don't have the complete lyrics,
they're really hard to work out.
If anyone knows them then please mail me and
i'll amend this file and credit you for it.


I'm pretty that's all of it. But if there's anything missing or you've
got something else on this album you want transcribing then please E-mail
me at Matthewwynn@compuserve.com. Next up will probably be Mascara or Lotion.


Later

Matt     
Добавлено: 19.08.2013
Другие материалы по этой песне:

Страница создана 12.03.2012
http://primanota.ru/deftones/lhabia-chords.htm
Привет, Гость.
Предлагаем пройти революционный курс по гитаре.
Подарок от PrimaNota.Ru, забирай!