PrimaNota.ru - самый крупный в мире бесплатный архив песенных текстов, аккордов, табулатур и нот


Deftones - Lotion - аккорды и текст, таба, бас-таба, видео

Регистрация Запомнить меня
Войти через:  Facebook Google Twitter Vk Yandex Mail.ru

Deftones - Lotion - аккорды и текст, таба, бас-таба, видео

Печатать
Просмотров: 348
Авторы: Deftones

Lotion
Deftones
		   m: Heimer@t-online.de

Deftones
"Lotion"
Around The Fur

Transcribed by Christopher D Heimer

Tuning:

1 Eb  2 Bb  3 Gb  4 Db  5 Ab  6 Db

/ slide
^ hammer on/pull off

               Riff 1 (Verse)
 Opening Chord                   w/flanger
|-0-0-0-0----||------------------0-0-0-0-||
|-3-3-3-3----||------------------3-3-3-3-||
|-0-0-0-0----||------------------0-0-0-0-||
|(w/flanger)-||--------------------------||
|------------||-0111-0111-01-111---------||
|------------||-0111-0111-01-111---------||
                |------pm------|

Riff 1b (last time before chorus)

|-----------------------------|
|-----------------------------|
|-----------------------------|
|-----------------------------|
|-0^1-11-0^1-11-0^1-11-0^1-11-|
|-0^1-11-0^1-11-0^1-11-0^1-11-|

Riff 2 (Chorus)

|-----------------------------------|
|-----------------------------------|
|-----------------------------------|
|-----------------------------------|
|--4-4-4-4-4-4-4-4-5-5-5-5-5-5-5-5--|
|--4-4-4-4-4-4-4-4-5-5-5-5-5-5-5-5--|

Riff 3 (after chorus)

|----------------------|
|----------------------|
|----------------------|
|------harm------------|
|-4-4-444444-5^4-4-7^5-|
|-4-4-444444-5^4-4-7^5-|
   pm

Riff 4 (Bridge, after bass)

|-----------------------|
|-----------------------|
|-----------------------|
|-----------------------|
|-2/4-4-5^4-4-5^4-4-7^4-|
|-2/4-4-5^4-4-5^4-4-7^4-|

Order:

Opening Chord ; Riff 1 (3x); Riff 1b (1x);
Riff 2 (2x); Chord; Riff 1 (3x); Riff 1b (1x);
Riff 2 (4x); Riff 3 (4x); Chord; Riff 1 (3x);
Riff 1b (1x); Riff 2 (4x); Riff 3 (4x); Bass (2x);
Riff 4 (8x); Chord; Riff 1 (3x); Riff 1b (1x);
Riff 2 (4x); Riff 3 (4x); Riff 4 to end (20x)


Lyrics:

I meant to come back to put out bliss
But the style is crumbling covered canned
It was sick and no you don't even know how
It comes shifts then gets ruined by you fucking slobs
(But)

It's classical
Anyways

I can't help it makes me so sick over and over
It sits stiff bound with no heart fine
'Cause this is where the separation starts arising
I can see it coming over your cloud
(And)

It's classical
Anyways
How coll are you?
I remember

I feel sick

Just a bad call it's so funny how you think
I'm so serious but that's not it
The thing is I don't give enough to give a fuck
You're plain boring and you bore me asleep
(But)

It's classical
Anyways
How cool are you?
I remember

I feel sick

(And I)

I feel sickened

Who the fuck are you anyway you fuck it's making
Sick sense seeing how you're sticking out
Hardly and hoping money please arise up off
The fucking knees and hop off the train for a second
and try to find your own fucking heart

It's classical
Anyways
How cool are you?
I remember

I feel sick

I feel sickened



It's an easy song if you get used to the groove,
I guess!
The basspart in the middle is similar to Riff 4,
just with slightly different rhythm (I also made
a bass tab wher you can see that).
Questions, comments etc. welcome. Enjoy!

Christopher (heimer@t-online.de)     
Добавлено: 13.07.2013
Другие материалы по этой песне:

Страница создана 04.03.2012
http://primanota.ru/deftones/lotion-chords.htm
Привет, Гость.
Предлагаем пройти революционный курс по гитаре.
Подарок от PrimaNota.Ru, забирай!