PrimaNota.ru - самый крупный в мире бесплатный архив песенных текстов, аккордов, табулатур и нот


Decapitated - Way To Salvation - таба, видео

Регистрация Запомнить меня
Войти через:  Facebook Google Twitter Vk Yandex Mail.ru

Decapitated - Way To Salvation - таба, видео

Печатать
Просмотров: 219
Уроки эстрадного вокала в Санкт-Петербурге
Band: Decapitated
Album: Winds Of Creation
Song:  Way To Salvation

Copyright (c)  Wicked World Records 2000
Version 1.0 - 14.10.06

.  - palm mute           /  - slide up to
\  - slide down to       ~  - vibrato
h  - hammer on           b  - Bend
p  - pull off            Suffixes for bend
t  - tap                 f  - full bend    h - half bend
ph - pinched harmonic    q  - quarter bend t - tap bend
*  - see comment         ^  - Hold bend    r release bend
x  - Stuccatto           ~  - vibrato bend
,  - slight palm mute    () - ghost note, sustained note
"  - tremolo note        <> - Trill

Tuning D G C F A D


_________________________________________________________

Riff 1 0:00
Both Guitars
|--------------------------------------------------|
|--------------------------------------------------|
|--------------------------------------------------|
|--------------------------------------------------|
|----3"-3"-0"-1"-1"------------3"-3"-0"-1"-1"-4--3-|
|-0"----------------2"-5544-0"----------------2--1-|


Riff 2a 0:19
Guitar 1
|----------------------------------------------------------|
|----------------------------------------------------------|
|----5"-5"-------------------------------------------------|
|----------------------------------------------------------|
|----------3-2-----0"-1"-1"------------3"-3"-0"-1"-1"-4--3-|
|-0"-----------5-4----------2"-5544-0"----------------2--1-|
           . . . .

Guitar 2
|-----------------------------------------------------------|
|-----------------------------------------------------------|
|-----------------------------------------------------------|
|-----------------------------------------------------------|
|----3"-3"--3-2-----0"-1"-1"------------3"-3"-0"-1"-1"-4--3-|
|-0"------------5-4----------2"-5544-0"----------------2--1-|
            . . . .


Riff 3 0:36
Both Guitars
|--------------|
|--------------|
|--------------|
|--------------|
|-3-4-5--5-4-3-|
|-1-2-3--3-2-1-|
  . . .  . . .

Riff 4 intro 0:37
Guitar 1
|-----------------------------------------------------|
|-----------------------------------------------------|
|-----------------------------------------------------|
|-----------------------3/4---------------------------|
|----------------333222-1/2--------------5-4-5--4/5-2-|
|-000333222333000-----------000332233000-3-2-3--2/3-0-|
                                         . . .

--------------------------------------------------|
--------------------------------------------------|
--------------------------------------------------|
----------------5-4-3/4---------------------------|
----------------3-2-1/2-----------------5-4-3-4/5-|
-000333222333000--------000333222333000-3-2-1-2/3-|
                                        . . .


Guitar 1
|-----------------------------------------------------|
|-----------------------------------------------------|
|-----------------------------------------------------|
|-----------------------------------------------------|
|----------------------------------------5-4-5--4/5-2-|
|----------------------------------------3-2-3--2/3-0-|
                                         . . .

--------------------------------------------------|
--------------------------------------------------|
--------------------------------------------------|
----------------5-4-3/4---------------------------|
----------------3-2-1/2--------------5-4-3--------|
-------------------------------------3-2-1-222333-|
                                     . . .


Riff 4a 0:46
Both Guitars
|--------------------------------------------------|
|--------------------------------------------------|
|--------------------------------------------------|
|-----------------------3/4------------------------|
|----------------333222-1/2--------------5-4-3-4/5-|
|-000333222333000-----------000332233000-3-2-1-2/3-|
                                         . . .

-------------------------------------------------|
-------------------------------------------------|
-------------------------------------------------|
-----------------------3/4-----------------------|
----------------333222-1/2--------------4-5--3-4-|
-000333222333000-----------000333222333-2-3--1-2-|
                                        . .  . .

Riff 4b 0:54
Both Guitars
|--------------------------------------------------|
|--------------------------------------------------|
|--------------------------------------------------|
|-----------------------3/4------------------------|
|----------------333222-1/2--------------5-4-3-4/5-|
|-000333222333000-----------000332233000-3-2-1-2/3-|
                                         . . .


Riff 5 Intro 1:10
Guitar 1
|-------------------------------------------------------------|
|-------------------------------------------------------------|
|--------------------------------------------0000-------------|
|-4----444455554444-------------3----33334444----4444---------|
|-22222------------222255554444-11111----------------44443333-|
|-------------------------------------------------------------|

Guitar 2
|-------------------------------------------------------------|
|-------------------------------------------------------------|
|-------------------------------------------------------------|
|-4-----------------------------3-----------------------------|
|-2-----------------------------1-----------------------------|
|-------------------------------------------------------------|


Riff 5 1:19
Both Guitars
|-------------------------------------------------------------|
|-------------------------------------------------------------|
|--------------------------------------------0000-------------|
|-4----444455554444-------------3----33334444----4444---------|
|-22222------------222255554444-11111----------------44443333-|
|-------------------------------------------------------------|

Guitar 2 Harmony @ 1:29
|-------------------------------------------------------------|
|-------------------------------------------------------------|
|--------------------------------------------3333-------------|
|-4----444455554444-------------3----66667777----7777---------|
|-22222------------222255554444-11111----------------77776666-|
|-------------------------------------------------------------|

1:36 - Riff 4b
1:52 - Riff 5 Intro
2:02 - Riff 5
2:11 - Guitar 2 Harmony
2:22 - Riff 1

Riff 2b 2:29
Guitar 1
|----------------------------------------------------------|
|----------------------------------------------------------|
|----5"-5"-------------------------------------------------|
|-----------------------------------------------3----------|
|----------3-2-----0"-1"-1"------------3"-3"-0"-1-----4--3-|
|-0"-----------5-4----------2"-5544-0"----------------2--1-|
           . . . .

Guitar 2
|-----------------------------------------------------------|
|-----------------------------------------------------------|
|-----------------------------------------------------------|
|-----------------------------------------------------------|
|----3"-3"--3-2-----0"-1"-1"------------3"-3"-0"-1"-1"-4--3-|
|-0"------------5-4----------2"-5544-0"----------------2--1-|
            . . . .


Riff 6a 2:38
Both Guitars
|---------------------------------------------------------------|
|---------------------------------------------------------------|
|---------------------------------------------------------------|
|---------5\4-------------5\4-------------5\4-------------5\4-4-|
|-2h3-4-5-3\2-3-2-2-3-4-5-3\2-3-2-2-3-4-5-3\2-3-2-2-3-4-5-3\2-2-|
|-0h1-2-3-----1-0-0-1-2-3-----1-0-0-1-2-3-----1-0-0-1-2-3-------|
      . .     . . . . . .     . . . . . .     . . . . . .

Riff 6b under solo
Both Rythem Guitars
|---------------------------------------------------------------|
|---------------------------------------------------------------|
|---------------------------------------------------------------|
|---------5\4-------------5\4-------------5\4-----------4-----3-|
|-2h3-4-5-3\2-3-2-2-3-4-5-3\2-3-2-2-3-4-5-3\2-3-2-2-3-4-2-4-3-1-|
|-0h1-2-3-----1-0-0-1-2-3-----1-0-0-1-2-3-----1-0-0-1-2---2-1---|
      . .     . . . . . .     . . . . . .     . . . . . . . . .


End.
Добавлено: 14.06.2012
Вам также может быть интересно:
Другие материалы по этой песне:

Страница создана 14.06.2012
http://primanota.ru/decapitated/way-to-salvation-chords.htm
Привет, Гость.
Предлагаем пройти революционный курс по гитаре.
Подарок от PrimaNota.Ru, забирай!