PrimaNota.ru - самый крупный в мире бесплатный архив песенных текстов, аккордов, табулатур и нот


Deathstars - Death Is Wasted On The Dead - текст песни, таба, видео

Регистрация Запомнить меня
Войти через:  Facebook Google Twitter Vk Yandex Mail.ru

Deathstars - Death Is Wasted On The Dead - текст песни, таба, видео

Печатать
Просмотров: 246
Death is Wasted on the Dead by Deathstars

Tabbed by Doctor Vacuum

Tuning Drop C: CGCFAD

Tab Legend:

PM... - palm mute
/ - slide
( ) - Optional
(vbr) - vibrate
1,2,3X - repeat


INTRO and CHORUS

(0:00 - 0:17 min)

D|------------------------------------------------------------------------|
A|------------------------------------------------------------------------|
F|------------------------------------------------------------------------|
C|------------3--3--------10----8--------3--------6----8----10--------11--|
G|---(20/3)---3--3--------10----8--------3--------6----8----10--------11--|
C|---(20/3)---3--3--------10----8--------3--------6----8----10--------11--|


(0:18 - 0:25 min)

D|-------------------------------------------|
A|-------------------------------------------|
F|-------------------------------------------|
C|--1----3--------6----8----10------11----8--|
G|--1----3--------6----8----10------11----8--|
C|--1----3--------6----8----10------11----8--|


(0:26 - 0:29 min)

D|---------------------------------------|
A|---------------------------------------|
F|---------------------------------------|
C|----15----11----10----6----11--11------|
G|----15----11----10----6----11--11------|
C|----15----11----10----6----11--11------|


VERSE (Play VERSE 2x)

(0:29 - 0:32 min)

D|------------------------------------------|
A|------------------------------------------|
F|------------------------------------------|
C|------------------------------------------|
G|----3--3--1--3----3--1--3---3--1--3-------|
C|----3--3--1--3----3--1--3---3--1--3-------|
PM..........................................|


(0:32 - 0:37 min)

D|------------------------------------------------------------|
A|------------------------------------------------------------|
F|------------------------------------------------------------|
C|------------------------------------------------------------|
G|----6--6--4--6----8----10---8---10--10---13--8--8--8--6--5--|
C|----6--6--4--6----8----10---8---10--10---13--8--8--8--6--5--|
PM....................................................|


(0:37 - 0:39 min)

D|------------------------------------------|
A|------------------------------------------|
F|------------------------------------------|
C|------------------------------------------|
G|----3--3--1--3----3--1--3---3--1--3-------|
C|----3--3--1--3----3--1--3---3--1--3-------|
PM..........................................|


(0:39 - 0:43 min)

D|------------------------------------------------------------|
A|------------------------------------------------------------|
F|------------------------------------------------------------|
C|------------------------------------------------------------|
G|----6--6--4--6----8----10---8---10---10---13--8--8--8-------|
C|----6--6--4--6----8----10---8---10---10---13--8--8--8-------|
PM...............................................|



BRIDGE

(0:43 - 0:56 min)

D|----------------------------------------|
A|----------------------------------------|
F|----------------------------------------|
C|----------------------------------------|       2X
G|----3------6---8---10----8--10--8-------|
C|----3------6---8---10----8--10--8-------|


(0:56 - 

D|--------------------------------|
A|--------------------------------|
F|--------------------------------|
C|--------------------------------|        4X
G|----8--8--6--8----8--6--8-------|
C|----8--8--6--8----8--6--8-------|


At time 1:03 min u can play the pattern of the keyboard

(1:03 - 1:04 min)

D|----------------------------|
A|----------------------------|
F|----------------------------|
C|------8/10/11(vbr)----------|
G|----------------------------|
C|----------------------------|


- 1:10 min)

D|-----------------------------------------|
A|-----------------------------------------|
F|-----------------------------------------|
C|-----------------------------------------|
G|----8--8--6--8----8--6--8-------11--11---|
C|----8--8--6--8----8--6--8-------11--11---|



CHORUS

(1:10 - 1:16 min)

D|--------------------------------|
A|--------------------------------|
F|--------------------------------|
C|----3------6--8--10------11-----|
G|----3------6--8--10------11-----|
C|----3------6--8--10------11-----|


(1:16 - 1:24 min)

D|-----------------------------------------|
A|-----------------------------------------|
F|-----------------------------------------|
C|--1------3------6--8--10----11-----8-----|
G|--1------3------6--8--10----11-----8-----|
C|--1------3------6--8--10----11-----8-----|


-----------------------------------------
After repeating a second time Vers and Chorus:
-----------------------------------------


SOLO

(2:24 - 2:42 min)

D|----------------------------------------------|
A|--9---9---11---12---11---7---7---7---6--------|
F|----8-------------8----8---8---6---6---6------|
C|----------------------------------------------|         3X
G|----------------------------------------------|
C|----------------------------------------------|



BRIDGE

(2:43 - 2:49 min)

D|----------------------------------------------------------------|
A|----------------------------------------------------------------|
F|----------------------------------------------------------------|
C|--6-6-6-6--6-6-6--6-6-6--6-6-6--8-8-8-8--8-8-8--8-8-8--8-8-8----|
G|--6-6-6-6--6-6-6--6-6-6--6-6-6--8-8-8-8--8-8-8--8-8-8--8-8-8----|
C|--6-6-6-6--6-6-6--6-6-6--6-6-6--8-8-8-8--8-8-8--8-8-8--8-8-8----|


(2:50 - 3:00 min)

D|---------------------------------------------------------|
A|---------------------------------------------------------|
F|---------------------------------------------------------|
C|--3------3------3-----------------3------3------3--------|
G|--3------3------3-----------------3------3------3--------|
C|--3------3------3-----------------3------3------3--------|



Listen to the drums, at every drum beat a guitar stroke (3:04 - 3:16 min)

D|--------------------------------------------------------------------------|
A|--------------------------------------------------------------------------|
F|--------------------------------------------------------------------------|
C|-11--11--11--11--13--13--10--10--11--11--11--11--13-13-13-13-10-10-10-10--|
G|-11--11--11--11--13--13--10--10--11--11--11--11--13-13-13-13-10-10-10-10--|
C|-11--11--11--11--13--13--10--10--11--11--11--11--13-13-13-13-10-10-10-10--|



CHORUS

(3:17-

D|--------------------------------|
A|--------------------------------|
F|--------------------------------|
C|----3------6--8--10------11-----|       2X
G|----3------6--8--10------11-----|
C|----3------6--8--10------11-----|


- 3:44 min)
D|-----------------------------------------|
A|-----------------------------------------|
F|-----------------------------------------|
C|--1------3------6--8--10----11-----8-----|    2X
G|--1------3------6--8--10----11-----8-----|
C|--1------3------6--8--10----11-----8-----|


OUTRO

( 3:45 -

D|--------------------------------|
A|--------------------------------|
F|--------------------------------|
C|----3------6--8--10------11-----|       
G|----3------6--8--10------11-----|
C|----3------6--8--10------11-----|


- 3:56 min)

D|--------------------------|
A|--------------------------|
F|--------------------------|
C|--1------3------6--8--10--|   
G|--1------3------6--8--10--|
C|--1------3------6--8--10--|
Добавлено: 02.10.2013
Другие материалы по этой песне:
  • Аккорды и текст

Страница создана 02.10.2013
http://primanota.ru/deathstars/death-is-wasted-on-the-dead-chords.htm
Привет, Гость.
Предлагаем пройти революционный курс по гитаре.
Подарок от PrimaNota.Ru, забирай!