PrimaNota.ru - самый крупный в мире бесплатный архив песенных текстов, аккордов, табулатур и нот


Deathstars - Mark Of The Gun - текст песни, таба, видео

Регистрация Запомнить меня
Войти через:  Facebook Google Twitter Vk Yandex Mail.ru

Deathstars - Mark Of The Gun - текст песни, таба, видео

Печатать
Просмотров: 183
Уроки эстрадного вокала в Санкт-Петербурге
===========================================================

                   Mark of the Gun
===========================================================

By:  Deathstars
Album: Night Electric Night

Tabbed by: John Moores
mooresjw@email.uc.edu



Drop C Tuning (CGCFAD)

* = Palm Mute
@ = Pinched harmonic
x = muted

Intro/Main Riff
0:17

|-----------------------|
|-----------------------|
|-----------------------|
|----5-------3----------|
|----5-------3----------|
|----5-------3----------|

0:19
|---------------------------------|
|---------------------------------|
|---------------------------------|
|---7----7--9/10\9--7--10----7----|
|---7-77-7--7/8\\7--5--10----7----|
|---7-77-7-------------10----7----|

|---------------------------------|
|---------------------------------|
|---------------------------------|
|---7----7--10--7--5555--5/7------|
|---7-77-7--8---5--5555--5/7------|
|---7-77-7---------5555--5/7------|
                   ****                         

|---------------------------------|
|---------------------------------|
|---------------------------------|
|---7----7--9/10\9--7--10----7----|
|---7-77-7--7/8\\7--5--10----7----|
|---7-77-7-------------10----7----|

|---------------------------------|
|---------------------------------|
|---------------------------------|
|---7----7----9/10\9---3----------|
|---7-77-7----9/10\9---3----------|
|---7-77-7----9/10\9---3----------|


Verse 1
0:35

Nothing is played here

0:50
|-------------------------------------|
|-------------------------------------|
|-------------------------------------|
|-------------------------------------|  x3
|---7-7---7----7-7--7----7-10-9-7-----|
|---7-7---7----7-7--7----7-10-9-7-----|
    * *   *    * *  *    * *  * *

|---------------|
|---------------|
|---------------|
|---------------|  
|---7-7---7-----|
|---7-7---7-----|
    * *   *       


1:04
|-----------------------|
|-----------------------|
|-----------------------|
|----5-------3----------|
|----5-------3----------|
|----5-------3----------|


Chorus
1:06

|---------------------------------|
|---------------------------------|
|---------------------------------|
|---7----7--9/10\9--7--10----7----|
|---7-77-7--7/8\\7--5--10----7----|
|---7-77-7-------------10----7----|

|---------------------------------|
|---------------------------------|
|---------------------------------|
|---7----7--10--7--5555--5/7------|
|---7-77-7--8---5--5555--5/7------|
|---7-77-7---------5555--5/7------|
                   ****                        

|---------------------------------|
|---------------------------------|
|---------------------------------|
|---7----7--9/10\9--7--10----7----|
|---7-77-7--7/8\\7--5--10----7----|
|---7-77-7-------------10----7----|

|---------------------------------|
|---------------------------------|
|---------------------------------|
|---7----7----9/10\9---3----------|
|---7-77-7----9/10\9---3----------|
|---7-77-7----9/10\9---3----------|


Verse 2
1:21

Nothing is played here

1:36
|-------------------------------------|
|-------------------------------------|
|-------------------------------------|
|-------------------------------------|  x3
|---7-7---7----7-7--7----7-10-9-7-----|
|---7-7---7----7-7--7----7-10-9-7-----|
    * *   *    * *  *    * *  * *

|---------------|
|---------------|
|---------------|
|---------------|  
|---7-7---7-----|
|---7-7---7-----|
    * *   *    


1:50
|-----------------------|
|-----------------------|
|-----------------------|
|----5-------3----------|
|----5-------3----------|
|----5-------3----------|



Chorus
1:53

|---------------------------------|
|---------------------------------|
|---------------------------------|
|---7----7--9/10\9--7--10----7----|
|---7-77-7--7/8\\7--5--10----7----|
|---7-77-7-------------10----7----|

|---------------------------------|
|---------------------------------|
|---------------------------------|
|---7----7--10--7--5555--5/7------|
|---7-77-7--8---5--5555--5/7------|
|---7-77-7---------5555--5/7------|
                   ****                       

|---------------------------------|
|---------------------------------|
|---------------------------------|
|---7----7--9/10\9--7--10----7----|
|---7-77-7--7/8\\7--5--10----7----|
|---7-77-7-------------10----7----|

|---------------------------------|
|---------------------------------|
|---------------------------------|
|---7----7----9/10/14-------------|
|---7-77-7----9/10/14-------------|
|---7-77-7----9/10/14-------------|


Bridge
2:08

|-------------------------------------------|
|-------------------------------------------|
|-------------------------------------------|
|---3--------2-------7---------5------------|
|---3---5-3--2----6--7--10-9---5--2---------|
|---3---5-3--2----6--7--10-9---5--2---------|

|-------------------------------------------|
|-------------------------------------------|
|-------------------------------------------|
|---3--------2-------7-7--------------------|
|---3---5-3--2----6--7-7---9-9---10-10--14--|
|---3---5-3--2----6--7-7---9-9---10-10--14--|

|-------------------------------------------|
|-------------------------------------------|
|-------------------------------------------|
|---3--------2-------7---------5------------|
|---3---5-3--2----6--7--10-9---5--2---------|
|---3---5-3--2----6--7--10-9---5--2---------|

|--------------------------|
|--------------------------|
|--------------------------|
|---3--------2-------7-----|
|---3---5-3--2----6--7-----|
|---3---5-3--2----6--7-----|


Verse 3
2:39

Nothing is palyed here


2:46
|--------------------------|
|--------------------------|
|--------------------------|
|--------------------------| 
|---7-7---7----7-7--7------|
|---7-7---7----7-7--7------|
    * *   *    * *  *

|--------------------------|
|--------------------------|
|--------------------------|
|--------------5---3-------| 
|---7-7---7----5---3-------|
|---7-7---7----5---3-------|
    * *   *    

Chorus/Main Riff  (repeat twice)
2:54

|---------------------------------|
|---------------------------------|
|---------------------------------|
|---7----7--9/10\9--7--10----7----|
|---7-77-7--7/8\\7--5--10----7----|
|---7-77-7-------------10----7----|

|---------------------------------|
|---------------------------------|
|---------------------------------|
|---7----7--10--7--5555--5/7------|
|---7-77-7--8---5--5555--5/7------|
|---7-77-7---------5555--5/7------|
                   ****                     

|---------------------------------|
|---------------------------------|
|---------------------------------|
|---7----7--9/10\9--7--10----7----|
|---7-77-7--7/8\\7--5--10----7----|
|---7-77-7-------------10----7----|

|---------------------------------|
|---------------------------------|
|---------------------------------|
|---7----7----9/10\9---3----------|
|---7-77-7----9/10\9---3----------|
|---7-77-7----9/10\9---3----------|


3:25
|---------------------------------|
|---------------------------------|
|---------------------------------|
|---7----7--3-3---0---5/7---------|
|---7-77-7--3-3---0---5/7---------|
|---7-77-7--3-3---0---5/7---------|

|---------------------------------|
|---------------------------------|
|---------------------------------|
|---7----7--3---3-5--5--5/7-------|
|---7-77-7--3---3-5--5--5/7-------|
|---7-77-7--3---3-5--5--5/7-------|
                   

|---------------------------------|
|---------------------------------|
|---------------------------------|
|---7----7--3-3---0---5/7---------|
|---7-77-7--3-3---0---5/7---------|
|---7-77-7--3-3---0---5/7---------|

|---------------------------------|
|---------------------------------|
|---------------------------------|
|---7----7----10-9---5------3-----|
|---7-77-7----10-9---5------3-----|
|---7-77-7----10-9---5------3-----|

Добавлено: 23.08.2013
Другие материалы по этой песне:
  • Аккорды и текст

Страница создана 23.08.2013
http://primanota.ru/deathstars/mark-of-the-gun-chords.htm
Привет, Гость.
Предлагаем пройти революционный курс по гитаре.
Подарок от PrimaNota.Ru, забирай!