PrimaNota.ru - самый крупный в мире бесплатный архив песенных текстов, аккордов, табулатур и нот


Dance Gavin Dance - Backwards Pumpking Song - бас-таба, видео

Регистрация Запомнить меня
Войти через:  Facebook Google Twitter Vk Yandex Mail.ru

Dance Gavin Dance - Backwards Pumpking Song - бас-таба, видео

Печатать
Просмотров: 137
+---------------------------------------------------------------------------+

The Backwards Pumpking Song
Artist: Dance Gavin Dance
Album: Downtown Battle Mountain

Tuning: dADG

NOTE: Strumming may not be accurately defined do to the fact that at somepoint in
me, Roscoe, tabbing this I will become lazy and not write out the strumming.

Intro:
d|-44444444-4-4-4-6--6-----------------------------|
A|----------------------6-6-6-2--2--22-2-2-66-6-6-6-|  x4
D|----------------------------------------------------|
G|----------------------------------------------------|

"And now, the fog is rolling in..."

   v v v v v v v v
d|-7-7-7-7-7-7-7-7--6--6--6-6-6--2--2--2--777-777-----|
A|----------------------------------------------------|  x2
D|----------------------------------------------------|
G|----------------------------------------------------|

"Oh please don't get up,"

d|-7~--|
A|-----|
D|-----|
G|-----|

"I'll get that for you."

d|-6~--|
A|-----|
D|-----|
G|-----|

"It's selfish to say..."

d|-6~--4~---------------|
A|---------6~--7~-------|  x2
D|----------------------|
G|----------------------|

"[Don't just lay on the ground son...]"

d|-----------------------------------|
A|-----------------------------------|  x4
D|-6-6-666-9-9-999--4-4-44~--4-4-44~-|
G|-----------------------------------|

"Bring back the fight tonight,"

d|-44444444-4-4|-----22222222-2-2|-----------------|------------------|
A|-------------|(x2)-------------|(x2)-66666666-6-6|(x2)-77777777-7-7-|(x2)
D|-------------|-----------------|-----------------|------------------|
G|-------------|-----------------|-----------------|------------------|

d|-44444444-4-4|-----22222222-2-2|-----------------|------------------|
A|-------------|(x2)-------------|(x2)-66666666-6-6|(x2)-77777777-7-7-|(x2)
D|-------------|-----------------|-----------------|------------------|
G|-------------|-----------------|-----------------|------------------|

d|---------6-6-6-6-7-7-7-7-7-7-7-7--------------------|
A|-4-4-4-4--------------------------------------------|  x4
D|----------------------------------------------------|
G|----------------------------------------------------|

d|----------66666666-77777777-77777777----------------|
A|-44444444-------------------------------------------|  x4
D|----------------------------------------------------|
G|----------------------------------------------------|

d|-44444444-4-4|-----22222222-2-2|-----------------|------------------|
A|-------------|(x2)-------------|(x2)-66666666-6-6|(x2)-77777777-7-7-|(x2)
D|-------------|-----------------|-----------------|------------------|
G|-------------|-----------------|-----------------|------------------|

d|-44444444-4-4|-----22222222-2-2|-----------------|------------------|
A|-------------|(x2)-------------|(x2)-66666666-6-6|(x2)-77777777-7-7-|(x2)
D|-------------|-----------------|-----------------|------------------|
G|-------------|-----------------|-----------------|------------------|

*This is where i get lazy, figure out where this goes by yourself. sorry...

d|----------------------------------------------------------------------|
A|----------------------------------------------------------------------|  x2
D|-13--13--13-13--13-13-13-14-14-14-------------------------------------|
G|-----------------------------------13--13--13-13--13-13-13--11-11-11--|

d------------------------------------|
A------------------------------------|  (x4)
D-11(x10)--11(x12)-------------------|
G--------------------12-12-12--------|

d-----------------------------------------------------------|
A-----------------------------------------------------------|
D-11(x8)-11(x2)-11(x2)-11(x2)-11(x2)-11(x2)-11(x2)----------|
G-----------------------------------------------------------|



+---------------------------------------------------------------------------+
Добавлено: 07.04.2012
Другие материалы по этой песне:
  • Аккорды и текст

Страница создана 07.04.2012
http://primanota.ru/dance-gavin-dance/backwards-pumpking-song-chords.htm
Привет, Гость.
Предлагаем пройти революционный курс по гитаре.
Подарок от PrimaNota.Ru, забирай!