PrimaNota.ru - самый крупный в мире бесплатный архив песенных текстов, аккордов, табулатур и нот


Dance Gavin Dance - Rock Solid - таба, видео

Регистрация Запомнить меня
Войти через:  Facebook Google Twitter Vk Yandex Mail.ru

Dance Gavin Dance - Rock Solid - таба, видео

Печатать
Просмотров: 185
Уроки эстрадного вокала в Санкт-Петербурге
This is my first tab wooo!!
Rock solid intro by Dance Gavin Dance
Standard (EADGBE)

---9--- -15-151515-12-1212--9-99---12h912h9-------------------|
---7---- -----------------------------------12-11-10-11-------|
---7-x3- ----------------------------------------------9------|
---7---- -----------------------------------------------------|
---9---- -----------------------------------------------------|
------- ------------------------------------------------------|


---9----- --15-151515-12-1212--9-99-171614------------------------------|
---7----- -------------------------------171614-------------------------|
---7-x3-- ------------------------------161413--------------------------|
---7----- --------------------------------161413--11h14p11----11-9------|
---9---- --------------------------------------------------13-----------|
-------- ---------------------------------------------------------------|


---9--- -15-151515-12-1212--9-99-12-9-12-9-12-9--12-16b-14-------------------|
---7---- --------------------------------------------------------------------|
---7-x3-- -------------------------------------------------------------------|
---7----  -------------------------------------------------------------------|
---9-------------------------------------------------------------------------|
-------- --------------------------------------------------------------------|

---9---- -15-151515-12-1212--9-99---9-12-------------------------------------|
---7---- --------------------------------10-9--10-9--------------------------|
---7-x3-- -------------------------------------------------------------------|
---7----  -------------------------------------------------------------------|
---9---- --------------------------------------------------------------------|
-------- --------------------------------------------------------------------|

MORE COMING SOON!
Добавлено: 27.05.2012
Другие материалы по этой песне:

Страница создана 12.04.2012
http://primanota.ru/dance-gavin-dance/rock-solid-chords.htm
Привет, Гость.
Предлагаем пройти революционный курс по гитаре.
Подарок от PrimaNota.Ru, забирай!