PrimaNota.ru - самый крупный в мире бесплатный архив песенных текстов, аккордов, табулатур и нот


Dance Gavin Dance - Self-trepanation - таба, видео

Регистрация Запомнить меня
Войти через:  Facebook Google Twitter Vk Yandex Mail.ru

Dance Gavin Dance - Self-trepanation - таба, видео

Печатать
Просмотров: 124
-------------------------------------------------------------------------------
                             SELF-TREPANATION - Dance Gavin Dance
-------------------------------------------------------------------------------
Tabbed by: Dylan Dutra
Email: dylandutra@live.com

Tuning: E Standard

These are Will's parts to the song (and Zach does more or less the same
thing in some parts except for a little variation, for the most part. This
is a 'be all, end all'tab for this song, but hopefully it gets you in the
right direction.

Besides Zac's parts being ommitted, I can't figure out the heavy/metal part
in the intro. Help?

You can figure out the rhythm of the chords yourself, I'm sure.

Effects-Ridden Start to Song (no idea what the effect is. Phaser or
something?):

|-------------|
|-------------|
|-------------|
|--------5----|x16
|--7----------|
|-------------|

"No one beleives me"
|------|
|--9---|
|--8---|
|--9---|
|--7---|
|------|

Slide up into:

"They're always on your side..."

|---------------------7---5-------|-----7s9-----14-x-14h16-14h16--|
|--9--------7------9----------7---|-7--------7--------------------|
|--8----6-8---8-6--8----4---4---4-|-6--------6--------------------|
|--9---------------9--------------|-7--------7--------------------|
|--7---------------7--------------|-5--------5--------------------|
|---------------------------------|-------------------------------|

Explosion/Climax:

|---------------9h12--|
|--12b-9--9h12--------|
|---------------------|
|---------------------|x4
|---------------------|
|---------------------|

|---------------9h12--|
|--12b-12--9h12-------|
|---------------------|
|---------------------|x4
|---------------------|
|---------------------|

Repeat that. The bend should go up and down a whole tone (it's a bend and
release up to the 14th fret C#)

"No one believes me"

|----|----------------------------|
|----|----------------------------|
|----|----------------------------|
|--8-|--9-8--9-8-9-8-9-8--11--13--|x6?
|----|----------------------------|
|----|----------------------------|

While Will does that, Zac jams the E7 chord (shown at the beginning of the
tab at the same rhythm with obscene amounts of phaser.

Haven't figured out Zac's little tapping part at the end, sorry.

That's about all I got. Hopefully someone can build off this.
Добавлено: 09.07.2012
Другие материалы по этой песне:
  • Аккорды и текст

Страница создана 09.07.2012
http://primanota.ru/dance-gavin-dance/self-trepanation-chords.htm
Привет, Гость.
Предлагаем пройти революционный курс по гитаре.
Подарок от PrimaNota.Ru, забирай!