PrimaNota.ru - самый крупный в мире бесплатный архив песенных текстов, аккордов, табулатур и нот


Clutch - Subtle Hustle - текст песни, таба, видео

Регистрация Запомнить меня
Войти через:  Facebook Google Twitter Vk Yandex Mail.ru

Clutch - Subtle Hustle - текст песни, таба, видео

Печатать
Просмотров: 221
----------------------------------------------------------------
Subtle Hustle - Clutch
----------------------------------------------------------------
Tabbed by: Sword Shredder
Tuning: EADGBe

Intro:
e|--------------------------------------------------------------|
B|--------------------------------------------------------------|
G|--------------------------------------------------------------|
D|--2-----------------------------------------------------------|
A|--0-----------------------------------------------------------|
E|--------------------------------------------------------------|

Main Riff  (guitar 1):
e|--------------------------------------------------------------|
B|--------------------------------------------------------------|
G|------------------------------------5-------------------------|
D|-------------------------5----7-----5-------------------------|
A|--0--5b6r5---3----0h3-0--5----7-----3-------------------------|
E|----------------5--------3----5-------------------------------|

Main Riff (guitar 2)
e|--------------------------------------------------------------|
B|------------------------------8---10--------------------------|
G|------------------------------7----9--------------------------|
D|----12b13r12--10--7--7h10--7--5----7--10----------------------|
A|--0---------------0--0-----0----------10----------------------|
E|--------------------------------------8-----------------------|

Verse: (guitar 1)
(Use half cocked wah pedal)
e|--------------------------------------------------------------|
B|--------------------------------------------------------------|
G|--------------------------------------------------------------|
D|-------5--7---------------------------------------------------|
A|-------5--7---------------------------------------------------|
E|-------3--5---------------------------------------------------|
^x4

Verse: (guitar 2 (wah))
e|--------------------------------------------------------------|
B|--------------------------------------------------------------|
G|------------5-5-------5-5h7---5-5-----------------------------|
D|----------------7p5h7-------------7p5h7-----------------------|
A|--------------------------------------------------------------|
E|--------------------------------------------------------------|
^x4

Main Riff x 4
Verse x 8
Main Riff x 4

Solo 
(with wah)
  A                         
e|--------------------------------------------------------------|
B|--------------------------------------------------------------|
G|-------5---------5---------5----------------------------------|
D|---7-7--7--5h7-7--7--5h7-7--7--5h7----------------------------|
A|--------------------------------------------------------------|
E|--------------------------------------------------------------|

  A                         
e|--------------------------------------------------------------|
B|--------------------------------------------------------------|
G|-------5---------5---------5-7-7b9----------------------------|
D|---7-7--7--5h7-7--7--5h7-7------------------------------------|
A|--------------------------------------------------------------|
E|--------------------------------------------------------------|

  G    
e|--------------------------------------------------------------|
B|--------------------------------------------------------------|
G|------------0tr3--------------3tr5----------------------------|
D|--5-5--3-5-----------5-5--3-5---------------------------------|
A|--------------------------------------------------------------|
E|--------------------------------------------------------------|

  A
e|---------------------------------------------------------------|
B|---------------------------------------------------------------|
G|-------5---------5---------5-----------------------------------|
D|---7-7--7--5h7-7--7--5h7-7--7--5h7-----------------------------|
A|---------------------------------------------------------------|
E|---------------------------------------------------------------|

(turn wah off, neck pickup)
  C
e|---------------------------------------8-8-8-8-----------------|
B|----------10--10--10--10--10-----------8-8-8-8-----------------|
G|-----8-10-10b-10b-10b-10b-10b11r10p8---------------------------|
D|--10--------------------------------10-------------------------|
A|---------------------------------------------------------------|
E|---------------------------------------------------------------|

Riff 2:
e|--------------------------------------------------------------------------|
B|--------------------------------------------------------------------------|
G|--------------------------------------------------------------------------|
D|--2---2--5------7---2---2--5------7----2---2--5------7--------------------|
A|--0---0--3---7--5---0---0--3---7--5----0---0--3---7--5--5-5-5-5-5-5-5-5---|
E|-------------5-----------------5------------------5-----3-3-3-3-3-3-3-3---|
^x2

verse x 4
main riff x 4

Outro 1
e|---------------------------------------------------------------|
B|---------------------------------------------------------------|
G|--------------------------------------5------------------------|
D|-------------------------5-5-5-7-7-7--5------------------------|
A|--0--5b6r5---3----0h3-0--5-5-5-7-7-7--3------------------------|
E|----------------5--------3-3-3-5-5-5---------------------------|
^x4

Outro 2:
e|---------------------------------------------------------------|
B|---------------------------------------------------------------|
G|------------------2--------------------------------------------|
D|--7-5-7-----7-----2--------------------5-----------------------|
A|------------------0--------------------5-----------------------|
E|---------------------------------------3-----------------------|



| h  hammer-on
| p  pull-off
| b  bend
| r  release bend
| tr trill
Добавлено: 13.05.2012
Другие материалы по этой песне:

Страница создана 02.05.2012
http://primanota.ru/clutch/subtle-hustle-chords.htm
Привет, Гость.
Предлагаем пройти революционный курс по гитаре.
Подарок от PrimaNota.Ru, забирай!