PrimaNota.ru - самый крупный в мире бесплатный архив песенных текстов, аккордов, табулатур и нот


Clutch - 10000 Witnesses - текст песни, бас-таба, видео

Регистрация Запомнить меня
Войти через:  Facebook Google Twitter Vk Yandex Mail.ru

Clutch - 10000 Witnesses - текст песни, бас-таба, видео

Печатать
Просмотров: 185
Авторы: Clutch

first verse
G|----------------------|
D|----------------------|
A|3-3-3-5-5-5-5-0-0-0-00|
E|----------------------|

chorus
G|-----------------|          G|-----------------|
D|-----------------|          D|-----------------|
A|---3-0---0-3-0---|    x3    A|---3-0---0-3-0---|    x1
E|3------3---------|          E|0------3---------|

"hey uh-huh"
G|-----------------|
D|-----------------|
A|0-0-0-3-0---3-0--|    x16
E|----------3------|

chorus    x2
G|-----------------|          G|-----------------|
D|-----------------|          D|-----------------|
A|---3-0---0-3-0---|    x3    A|---3-0---0-3-0---|   x1
E|3------3---------|          E|0------3---------|

second verse
G|----------------------|
D|----------------------|
A|3-3-3-5-5-5-5-0-0-0-00|   x8
E|----------------------|

"hey uh-huh"
G|-----------------|
D|-----------------|
A|0-0-0-3-0---3-0--|    x12
E|----------3------|

chorus    x2
G|-----------------|         G|-----------------|
D|-----------------|         D|-----------------|
A|---3-0---0-3-0---|   x3    A|---3-0---0-3-0---|    x1
E|3------3---------|         E|0------3---------|

outro
G|--------------|
D|--------------|
A|3-0---0-3-0---|    x3
E|----3---------|
Добавлено: 25.04.2012
Другие материалы по этой песне:
  • Аккорды и текст

Страница создана 21.02.2012
http://primanota.ru/clutch/10000-witnesses-chords.htm
Привет, Гость.
Предлагаем пройти революционный курс по гитаре.
Подарок от PrimaNota.Ru, забирай!