PrimaNota.ru - самый крупный в мире бесплатный архив песенных текстов, аккордов, табулатур и нот


Clutch - Worm Drink - текст песни, бас-таба, видео

Регистрация Запомнить меня
Войти через:  Facebook Google Twitter Vk Yandex Mail.ru

Clutch - Worm Drink - текст песни, бас-таба, видео

Печатать
Просмотров: 148
Verse						
G|-------------------------------------| x8
D|-------------------------------------|
A|--------------------------3-----3----|
E|--5--4--3---5--4--3---3h5---3h5---5--|

Verse End 
G|------------------| x1
D|------------------|
A|----3----3-3-3----|
E|--5--3h5-------5--|

Verse x8
Verse End x1

G|---------------------------------| x8
D|---------------------------------|
A|-------------------------3-------|
E|--3h5-5--3h5-55--3h5-5-5---5--3--|

Verse x11
Verse End x4
Добавлено: 29.02.2012
Другие материалы по этой песне:

Страница создана 29.02.2012
http://primanota.ru/clutch/worm-drink-chords.htm
Привет, Гость.
Предлагаем пройти революционный курс по гитаре.
Подарок от PrimaNota.Ru, забирай!