PrimaNota.ru - самый крупный в мире бесплатный архив песенных текстов, аккордов, табулатур и нот


Clutch - Pulaski Skyway - текст песни, таба, видео

Регистрация Запомнить меня
Войти через:  Facebook Google Twitter Vk Yandex Mail.ru

Clutch - Pulaski Skyway - текст песни, таба, видео

Печатать
Просмотров: 127
-------------------------------------------------------------------------------
                             Pulaski Skyway - Clutch    
-------------------------------------------------------------------------------
Tabbed by: Snidgie
E-mail: scummy78@hotmail.com

Tuning: Standard

Intro
                                                                                   
e|-----------------------------------------------4-4--7-4----------------------------|
B|------------------4-4-4--7-7-7-7-7-4-7-4-------4-4--7-4----------------------------|
G|----------4-4-4--4-4-4-------------------6b8-4----------6b8-6-4-6-4-6p4-------4----|
D|--4-4-4--6-6-6---------------------------------------------------------6p4------6--|
A|-6-6-6---------------------------------------------------------------------6-6-----|
E|-----------------------------------------------------------------------------------|


Intro riff 

e|-----------------------------------------------------------------------------------|
B|-----------------------------------------------------------------------------------|
G|-----------------------------------------------------------------------------------|
D|-----------------------------------------------------------------------------------|
A|---------2h4-4-4-4p2------------2---------------2h4-4-4-4p2-----------2------------|
E|-2h4-4-4-------------4---2-2h4---4p2---2h4-4-4--------------4---2-2h4---4p2--------|

Verse 

e|-----------------------------------------------------------------------------------|
B|-----------------------------------------------------------------------------------|
G|-----------------------------------------------------------------------------------|
D|--------------------------------------------------------------------------6-6-6-6--|
A|-------2-------------------2--------4-5--------2--------------------2-----4-4-4-4--|
E|-4-2-4---4-2-4-3--2--4-2-4---4-2-4------4-2-4----4-2-4-3--2---4-2-4---4-2----------|

Pre chorus

e|-------------------------------------------------------------------------------------|
B|-------------------------------------------------------------------------------------|
G|-------------------------------------------------------------------------------------|
D|-------------------------------------------------------------------------------------|
A|-------2--------2--------2---4--5---------2--------2--------2--4--5------------------|
E|-4-2-4----4-2-4----4-2-4-----2--3---4-2-4----4-2-4----4-2-4----2--3------------------|

Chorus

e|-------------------------------------------------------------------------------------|
B|-------------------------------------------------------------------------------------|
G|-------------------------------------------------------------------------------------|
D|-------------------------------------------------------------------------------------|
A|----------2h4-4-4-4p2-----------2-------------------2h4-4-4-4p2----------------------|
E|-2h4-4-4--------------4---2-2-4---4-2------2h4-4-4---------------4-2-2-4---2-2-4-----|


************************************

| /   slide up
| \   slide down
| h   hammer-on
| p   pull-off
| ~   vibrato
| +   harmonic
| x   Mute note
| b   Bend
| pb  Pre-bend
| br  Bend release
| pbr Pre-bend release
| brb Bend release bend

************************************

Добавлено: 02.11.2013
Другие материалы по этой песне:

Страница создана 01.05.2012
http://primanota.ru/clutch/pulaski-skyway-chords.htm
Привет, Гость.
Предлагаем пройти революционный курс по гитаре.
Подарок от PrimaNota.Ru, забирай!