PrimaNota.ru - самый крупный в мире бесплатный архив песенных текстов, аккордов, табулатур и нот


Clutch - Guild Of Mute Assassins - текст песни, таба, видео

Регистрация Запомнить меня
Войти через:  Facebook Google Twitter Vk Yandex Mail.ru

Clutch - Guild Of Mute Assassins - текст песни, таба, видео

Печатать
Просмотров: 157
Авторы: Clutch

"Pure Rock Fury" sessions and appears on the "Careful With that Mic" ep. As usual, to get the muffy guitar 
of Tim Sult you need to flip your pickup switch to the neck (rhythm) position. The chorus guitar part sounds like more than two rhythm guitars so I have tabbed it for one. The solo is just bluesy, bendy stuff in B 
minor and shouldn't pose to much trouble provided you have a good set of ears. The fade out solo is some Hendrixy backward stuff in B minor as well.

Song: Guild of Mute Assassins
Artist: Clutch
Transcribed by: Keith S. Byers
Intro:
4x

E--------------------------|
B---16-----16----16----16--|
G---16v----16v---16v---16v-|
D--------------------------|
A--------------------------|
E--------------------------|
  * Wide Vibrato

With Wah:
4x
E-----------------------------------------------|
B-----------------------------------------------|
G-----------------------------------------------|
D--------------------------------7---9---7---9\-|
A-----------5-5-5-5-5------------7---9---7---9\-|
E--5--7--5------------7--5---2---5---7---5---7\-|

Verse Riff Guitar 1:

E----------------------------------------------------------------------------|
B-12-12-12-12-12-12-12-12---15-15-15-15-15-15-15-15--10-10-10-10-10-10-10-10-|
G-11-11-11-11-11-11-11-11---14-14-14-14-14-14-14-14--9--9--9--9--9--9--9--9--|
D-9--9--9--9--9--9--9--9----12-12-12-12 12-12-12-12--7--7--7--7--7--7--7--7--|
A----------------------------------------------------------------------------|
E----------------------------------------------------------------------------|

E-------------------------|
B-12-12-12-12-12-12-12-12-|
G-11-11-11-11-11-11-11-11-|
D-9--9--9--9--9--9--9--9--|
A-------------------------|
E-------------------------|

Verse Riff Guitar 2:

E-----------------------------------------|
B-----------------------------------------|
G-----------------------------------------|
D-----------------------------------------|
A--9---12---9---7--9\----7--12--9--7--9---|
E--7---10---7---5--7\----5--10--7--5--7---|

Chorus:

B5     E5     A5      B5


Lick before solo:
W/wah

E------------------------------------|
B--9--7--9--7--9--7--9--7--9--7------|
G--9b-7--9--7--9--7--9b-7--9--7------|
D-------------------------------9--9-|
A------------------------------------|
E------------------------------------|
   *bend and release

After Solo riff

E-------------------------------------|
B--7------7--------------------7------|
G--7------7--------------------7---9\-|
D--7--9---7---9--9-9--7----7-9-7---9\-|
A-----9-------9--9-9p-7-9--7-9--------|
E-----------------------9-------------|
Добавлено: 23.05.2012
Другие материалы по этой песне:
  • Аккорды и текст

Страница создана 28.03.2012
http://primanota.ru/clutch/guild-of-mute-assassins-chords.htm
Привет, Гость.
Предлагаем пройти революционный курс по гитаре.
Подарок от PrimaNota.Ru, забирай!