PrimaNota.ru - самый крупный в мире бесплатный архив песенных текстов, аккордов, табулатур и нот


Clutch - I Have The Body - аккорды и текст, таба, видео

Регистрация Запомнить меня
Войти через:  Facebook Google Twitter Vk Yandex Mail.ru

Clutch - I Have The Body - аккорды и текст, таба, видео

Печатать
Просмотров: 134
I Have The Body
Clutch
		   I Have the Body                 by Clutch
   of John Wilkes Booth         from the album "Clutch"
                                words and music by Tim Sult, Dan Maines,
                                        Neil Fallon, and Jean-Paul Gaster
                                tabbed by Tom Mallon
Riff 1
E |-----------------------------------|---------------  play the first part of
B |-----------------------------------|--------------- the riff three times,
G |.-------------------------------5-.|-7-----7--5---- and on fourth sub. the
D |.------7-7h8p7--------7-7h8p7---5-.|-7-----7--5---- ending here for the C5
A |-0--0--0--------0--0--0---------3--|-5--0--5--3----
E |-----------------------------------|---------------

Riff 2
E |----------------------------|----------------------
B |----------------------------|---------------------- same here
G |.------------------------5-.|-7-----7--5-----------
D |.------------------------5-.|-7-----7--5-----------
A |-------------------------3--|-5--0--5--3-----------
E |-3h5-5-5-5-5--3h5-5-5-5-----|----------------------
    ^these single notes are actually played by the bass. I like to play
    them when I play the song. If you want to use them, use a palm-mute
    on them. Otherwise, ignore them.

Riff 3 (Chorus)
E |--------------------------------------------|
B |--------------------------------------------|
G |.-7-5--2-5-7-5---7-5-2-5-7---7-5--2-5-7-5--.|
D |.-7-5--2-5-7-5---7-5-2-5-7---7-5--2-5-7-5--.|
A |--5-3--0-3-5-3---5-3-0-3-5---5-3--0-3-5-3---|
E |--------------------------------------------|     
Добавлено: 26.08.2013
Другие материалы по этой песне:
  • Аккорды и текст

Страница создана 10.05.2012
http://primanota.ru/clutch/i-have-the-body-chords.htm
Привет, Гость.
Предлагаем пройти революционный курс по гитаре.
Подарок от PrimaNota.Ru, забирай!