PrimaNota.ru - самый крупный в мире бесплатный архив песенных текстов, аккордов, табулатур и нот


Clutch - I Have The Body Of John Wilkes Booth - текст песни, бас-таба, видео

Регистрация Запомнить меня
Войти через:  Facebook Google Twitter Vk Yandex Mail.ru

Clutch - I Have The Body Of John Wilkes Booth - текст песни, бас-таба, видео

Печатать
Просмотров: 95
Авторы музыки: Clutch
Авторы текста: Clutch
intro / verse / chorus           3x
G---------------------------------|
D---------------------------------|
A---------------------------3-----|
E-3-5-5-5-5---5-5-3-5-5-5-5-------|

                                1x
G- --------------------------------|
D- --------------------------------|
A- --------------------5-3-5-3-----|
E- 3-5-5-5-5---5-5-3-5-------------|

fill 1
G---------------------------------|
D---------------------------------|
A-5-3---3---5-3-------------------|
E-----5---------------------------|

fill 2 (just an extended version of fill 1)
G--------------------------------- --------------------------------|
D--------------------------------- --------------------------------|
A-5-3---3---5-3-----5-3---3---5--- 5-3---3---5-3-------------------|
E-----3-----------------5--------- ----5---------------------------|

chorus - same as verse, just change the 8th bar:
G---------------------------------|
D---------------------------------|
A---------------------------------|
E-3-5-5-5-5---5-5-3-6-----3-6-----|

last verse "bring 'em on up..."
G---------------------------------|
D---------------------------------|
A---------3-----------3---3---3---|
E-3-5---3-----3-5---3-------------|

fill 3
G---------------------------------|
D---------------------------------|
A---------3-----------------------|
E-3-5---3-----0-0---0-3---3---3---|

outro
G---------------------------------|
D---------------------------------|
A-----------------------5-5-3-5---|
E-3-5---3-5---3-5---3-5-----------|
Добавлено: 15.06.2012
Другие материалы по этой песне:
  • Аккорды и текст

Страница создана 25.05.2012
http://primanota.ru/clutch/i-have-the-body-of-john-wilkes-booth-chords.htm
Привет, Гость.
Предлагаем пройти революционный курс по гитаре.
Подарок от PrimaNota.Ru, забирай!