PrimaNota.ru - самый крупный в мире бесплатный архив песенных текстов, аккордов, табулатур и нот


Clutch - Big News - текст песни, таба, видео

Регистрация Запомнить меня
Войти через:  Facebook Google Twitter Vk Yandex Mail.ru

Clutch - Big News - текст песни, таба, видео

Печатать
Просмотров: 255
Уроки эстрадного вокала в Санкт-Петербурге
Author/Artist: Clutch
Album: Clutch
Title: Big News I
Transcribed by: Mike Tysor
Email: miketysor@hotmail.com

Ok, very simple.  Just make sure your guitar and amp
are pieces of junk if you want to effectively mimic
Clutch's sound.

Also, the ending is actually recorded and played in reverse,
but I wrote it up in forward direction so you can play it just
like you hear it.  It leads right into Big News II...
which I will have for y'all shortly.


Main Verse 2x
----------------------------------------------------------------------
----------------------------------------------------------------------
----------------------------------------------------------------------
-------------6---6-----6-8-6----------------6---6---------------------
-6--8-8-8------8-----8----------6--8-8-8------8-----------------------
---------------------------------------------------7-8-9--------------


Lead-in
----------------------------------------------------------------------
----------------------------------------------------------------------
----------------------------------------------------------------------
----------------------------------------------------------------------
-6--8-8---------------------------------------------------------------
----------------------------------------------------------------------


1st transition
----------------------------------------------------------------------
----------------------------------------------------------------------
----------------------------------------------------------------------
-8/10--10--10--10\4---------8/10--10--10--10\4------------------------
-6/8---8---8---8\-2---------6/8---8---8---8\-2------------------------
----------------------------------------------------------------------
                  ...Ahead one third..


----------------------------------------------------------------------
----------------------------------------------------------------------
----------------------------------------------------------------------
-8/10--10--10--10\4---------8/10--10--10--10---8-10---13--12--10------
-6/8---8---8---8\-2---------6/8---8---8---8----6-8----11--10--8-------
----------------------------------------------------------------------
                  ...Full ahead flank and....


2nd Transition 3x
----------------------------------------------------------------------
----------------------------------------------------------------------
----------8----------8------------------------------------------------
------6-8--------6-8--------6-8---------------------------------------
--8-6--------8-6--------6-8-------------------------------------------
----------------------------------------------------------------------


Solo
----------------------------------------------------------------------
------------9------------9-----11/---11/------------------------------
---8---10-------8---10------------------------------------------------
----------------------------------------------------------------------
----------------------------------------------------------------------
----------------------------------------------------------------------



--------------8-------------------------------------------------------
-----------9----------------------------------------------------------
---8---10-----------8/10----10-9-8/16--16--16--16\8-------------------
----------------------------------------------------------------------
----------------------------------------------------------------------
----------------------------------------------------------------------



---10--8--------------------------------------------------------------
-----------10-9--------------(13)--(13)-----7------9\-----------------
-----------------10--11/\-----------------8---8-10--------------------
----------------------------------------------------------------------
----------------------------------------------------------------------
----------------------------------------------------------------------



---10--8---------------------------------------------10--9------------
-----------10-9-------------------------7------9\-----------11/\------
-----------------10--11/\-------------8---8-10------------------------
----------------------------------------------------------------------
----------------------------------------------------------------------
----------------------------------------------------------------------


Backwards ending 11x
----------------------------------------------------------------------
----------------------------------------------------------------------
----------------------------------------------------------------------
----------------------------------------------------------------------
--8---8-----6---------------------8---8-----6-------------------------
---------8-----8---7-6-------------------8-----8---7-6----------------

     
Добавлено: 02.07.2013
Другие материалы по этой песне:
  • Аккорды и текст

Страница создана 10.03.2012
http://primanota.ru/clutch/big-news-chords.htm
Привет, Гость.
Предлагаем пройти революционный курс по гитаре.
Подарок от PrimaNota.Ru, забирай!