PrimaNota.ru - самый крупный в мире бесплатный архив песенных текстов, аккордов, табулатур и нот


Clutch - Escape From The Prison Planet - текст песни, таба, бас-таба, видео

Регистрация Запомнить меня
Войти через:  Facebook Google Twitter Vk Yandex Mail.ru

Clutch - Escape From The Prison Planet - текст песни, таба, бас-таба, видео

Печатать
Просмотров: 132
Авторы музыки: Clutch
Авторы текста: Clutch
-------------------------------------------------------------------------------
                              Clutch - Escape From The Prison Planet
-------------------------------------------------------------------------------
Album : Escape From L.A  
Tempo : 132
E-mail: gwendal.mollo@orange.fr
Tabbed by: newg


Intro / Chorus 
E ||----------------------------------------|-------------------------|
B ||----------------------------------------|-------------------------|
G ||o---------------------------------------|-------------------------|
D ||o---------------------------------------|-------------------------|
A ||----------------------------------3-----|----------------3L-3-----|
E ||-3L----3-----5-----5L----5-----3------5-|----3--5L-5--3--------5--|


---------------------------------------------------|---------|||
---------------------------------------------------|---------|||
---------------------------------------------------|--5--4--o|||
---------------------------------------------------|--5--4--o|||
--------------------------------------3------------|--3--2---|||
--3L----3-----5-----5L----5-----3--------------5---|---------||| x2


Verses / Solo :
Gtr clean        w
E |----------------------------|----------------------------------------||
B |--------------9-------------|----------------------------------------||
G |--------------7-------------|--------------------2-----0--2-----0----||
D |--------------6-------------|----------------------------------------||
A |--------------7-------------|----------------------------------------||
E |--0M----0M-------------0L---|--0--------0M---------------------------|| x8


Interludes : 

E |----------------------------------------|
B |----------------------------------------|
G |----------------------------------------|
D |----------------------------------------|
A |----------------------------------------|
E |--0L-0--0--12----15-12-------12---------|


----------------------------------------|
----------------------------------------|
----------------------------------------|
----------------------------------------|
----------------------------------------|
--10----10-10----10-12----15-12----12---|


----------------------------------------|
----------------------------------------|
----------------------------------------|
----------------------------------------|
----------------------------------------|
--0L-0--0--12----15-12-------12---------|


-------------------------------------------------------------------|
-------------------------------------------------------------------|
-------------------------------------------------------------------|
-------------------------------------------------------------------|
--1-----0-----0-----1-----0-----0-----1-----0-----0-----1----------|
-----------------------------------------------------------------3-|


----------------------------------------|
----------------------------------------|
----------------------------------------|
----------------------------------------|
----------------------------------------|
--0L-0--0--12----15-12-------12---------|


----------------------------------------|
----------------------------------------|
----------------------------------------|
----------------------------------------|
----------------------------------------|
--10----10-10----10-12----15-12----12---|


----------------------------------------|
----------------------------------------|
----------------------------------------|
----------------------------------------|
----------------------------------------|
--0L-0--0--12----15-12-------12---------|


----------------------------------------||
----------------------------------------||
----------------------------------------||
----------------------------------------||
----------------------------------------||
--10----10-10----10-12----10-12---------|| x2


Solo

E ||-16b12b-----|----------------|----------------|---------------|||
B ||-------14L--|--14------------|----------------|---------------|||
G ||o-----------|-----16-14-12---|--14b---12------|--------------o|||
D ||o-----------|----------------|-----------14L--|--14-12-------o|||
A ||------------|----------------|----------------|---------------|||
E ||------------|----------------|----------------|---------------||| x4

Outro : 

E |------|
B |------|
G |--9---|
D |--9---|
A |--7---|
E |--0---|


Intro
Verse 1
Chorus 1
Verse 2
Chorus 2
Verse 3
Interlude 1
Chorus 3
Solo
Interlude 2
Outro
Добавлено: 26.12.2013
Другие материалы по этой песне:

Страница создана 28.06.2012
http://primanota.ru/clutch/escape-from-the-prison-planet-chords.htm
Привет, Гость.
Предлагаем пройти революционный курс по гитаре.
Подарок от PrimaNota.Ru, забирай!